Loading...
Hurriganes logo

I Will Stay Hurriganes

  • 0
  • Share
  • Transposing
    0
  • Font Size
Hurriganes
I Will Stay
Tab written and submitted by Aleksi Hahko

It should be correct. I hope it is.

Standard tuning

Intro riff 4 times

|---------0--0--0--0--0--0--0--0-------------|
|---------1--0--1--0--1--1--0--1-------------|
|---------2--2--2--2--2--2--2--2-------------|
|---------2--2--2--2--2--2--2--2-------------|
|---0----------------------------------------|
|-0------------------------------------------|

(Before you start the verse play Am couple times)

Chords

EADGBE

F X33211
G 355433
Am 002210/577555
? 779997

Solo

|---------3-----------------------|-3------------5-------------------|
|-3--5-6----6-5-6p5--3------3-5-6-|---6-5-3---3----------------------|
|----------------------2--2-------|---------5------------------------|
|---------------------------------|----------------------------------|
|---------------------------------|----------------------------------|
|---------------------------------|----------------------------------|

F G Am
I will stay by your side now and forever,
F G Am
I will always only be in love with you.
F G Am
Is it true when you say that you love me
F G Am
And is it true that I'm the one?

F Am
In the day we walk together
F ?
In the night I think of you

F G Am
Is it true when you say that you love me
F G Am
And is it true that I'm the one?

F Am
I will phone your mother and ask her
F ?
If I can marry you.

Solo

F G Am
I will stay by your side now and forever,
F G Am
I will always only be in love with you.
F G Am
Is it true when you say that you love me
F G Am
And is it true that I'm the one?

Outro is almost the same as the intro
Listen to the CD.

Log In to leave a comment

After registration we will return you to the same place
Comments
face-with-monocle
If you wait a bit, some comments may appear here...

Shhh...

Versions

Most Popular