Loading...
Hurriganes logo

I Will Stay Hurriganes

  • 0
  • Share
  • Transposing
    0
  • Font Size
HURRIGANES
I WILL STAY
GUITAR PLAYED BY ALBERT JДRVINEN
TAB SUBMITTED BY ALEKSI HAHKO

Submitted this tab again because the old solo
Was my self-invented longer version and there
Were some mistakes in the lyrics too,
But now it should be correct. I hope.

Intro riff 4 times

|---------0--0--0--0--0--0--0--0-------------|
|---------1--0--1--0--1--1--0--1-------------|
|---------2--2--2--2--2--2--2--2-------------|
|---------2--2--2--2--2--2--2--2-------------|
|---0----------------------------------------|
|-0------------------------------------------|

(Before you start the verse play Am couple times)

Verse riff(s)

F G Am

|-1--1--1--1--1---3--3--3--3--3---|-0--0---0--0--0--0--0---0--0------|
|-1--1--1--1--1---3--3--3--3--3---|-1--1---1--1--1--1--1---1--1------|
|-2--2--2--2--2---4--4--4--4--4---|-2--2---2--2--2--2--2---2--2------|
|-3--3--3--3--3---5--5--5--5--5---|-2--2---2--2--2--2--2---2--2------|
|-3--3--3--3--3---5--5--5--5--5---|----------------------------------|
|-1--1--1--1--1---3--3--3--3--3---|----------------------------------|

F F

|-1--1--1--1--1--1--1--1----------|--5--5---5--5--5--5---------------|
|-1--1--1--1--1--1--1--1----------|--5--5---5--5--5--5---------------|
|-2--2--2--2--2--2--2--2----------|--5--5---5--5--5--5---------------|
|-3--3--3--3--3--3--3--3----------|--7--7---7--7--7--7---------------|
|-3--3--3--3--3--3--3--3----------|--7--7---7--7--7--7---------------|
|-1--1--1--1--1--1--1--1----------|--5--5---5--5--5--5---------------|

F

|-1--1--1--1--1--1--1--1----------|-7--7--7--7--7-7-7-7-7------------|
|-1--1--1--1--1--1--1--1----------|-9--9--9--9--9-9-9-9-9------------|
|-2--2--2--2--2--2--2--2----------|-9--9--9--9--9-9-9-9-9------------|
|-3--3--3--3--3--3--3--3----------|-9--9--9--9--9-9-9-9-9------------|
|-3--3--3--3--3--3--3--3----------|-7--7--7--7--7-7-7-7-7------------|
|-1--1--1--1--1--1--1--1----------|-7--7--7--7--7-7-7-7-7------------|

Solo

|---------3-----------------------|-3------------5-------------------|
|-3--5-6----6-5-6p5--3------3-5-6-|---6-5-3---3----------------------|
|----------------------2--2-------|---------5------------------------|
|---------------------------------|----------------------------------|
|---------------------------------|----------------------------------|
|---------------------------------|----------------------------------|

F G Am
I will stay by your side now and forever,
F G Am
I will always only be in love with you.
F G Am
Is it true when you say that you love me
F G Am
And is it true that I'm the one?

F* F**
In the day we walk together
F* B
In the night I think of you.

F G Am
Is it true when you say that you love me
F G Am
And is it true that I'm the one?

F* F**
I will phone your mother and ask her
F* B
If I can marry you.

Solo

F G Am
I will stay by your side now and forever,
F G Am
I will always only be in love with you.
F G Am
Is it true when you say that you love me
F G Am
And is it true that I'm the one?

Outro is almost the same as the intro
Listen to the CD!
Have fun.

Log In to leave a comment

After registration we will return you to the same place
Comments
face-with-monocle
If you wait a bit, some comments may appear here...

Shhh...

Most Popular