Hoobastank logo

Hello Again Hoobastank

  • 0
  • Share
  • Transposing
    0
  • Font Size
Hoobastank – Hello Again
Hello Again-Hoobastank
Hoobastank
My tab rip off-z:

Drop D:
D A D G B E

Intro:

Fig. 1

E10--10-x-x10-----10-x-x-10-10-x-x10--10-x-x10-----10---x-10-10-x-x-
B-------x-x----------x-x-------x-x-------x-x------------x-------x-x-
G-9---9-x-x-9h11--11-x-x-11-11-x-x-9---9-x-x-9h11--11---x-11-11-x-x-
D-0---0-x-x-0------0-x-x--0--0-x-x-0---0-x-x-0------0---x--0--0-x-x-
A-------------------------------------------------------------------
D-------------------------------------------------------------------

E10--10----x10---10---x10---x10-10--10----x10101010----10-----------
B-8---8----x-8----8---x-8---x-8-----------x---------------8b~~~~~~--
G----------x----------x-----x---10--10----x-9-9-9-9-----9-----------
D-0---0----x-0----0---x-0---x-0--0---0----x-0-0-0-0-----0-0---------
A------------------------------------------------------------------- end fig 1
D-------------------------------------------------------------------

E-------------------------------------------------------------------
B-------------------------------------------------------------------
G-9----9-----911---11----1111-----9----9-----911---11----1111-------
D-x----x-----x-x----x-----x-x-----x----x-----x-x----x-----x-x-------
A-7----7-----7/9----9-----9-9-----7----7-----7/9----9-----9-9-------
D-0----0-0-0-0------0-0-0-----0-0-0----0-0-0-0------0-0-0-----0-0---

E----------------------------------------------------------------
B----------------------------------------------------------------
G10---10----10101010----1010-----5-5-5-5-----5----5-----5--------
D-8----8-----8-8-8-8-----8-8-----3-3-3-3-----5----5-----5--------
A-8----8-----8-8-8-8-----8-8-----3-3-3-3-----3----3-----3--------
D-8----8-8-8---------8-8-----0-3-3-3-3-3-x-x--------2-2-----0-0--

E-------------------------------------------------------------------
B-------------------------------------------------------------------
G-9----9-----911---11----1111-----9----9-----911---11----1111-------
D-x----x-----x-x----x-----x-x-----x----x-----x-x----x-----x-x-------
A-7----7-----7/9----9-----9-9-----7----7-----7/9----9-----9-9-------
D-0----0-0-0-0------0-0-0-----0-0-0----0-0-0-0------0-0-0-----0-0---

E----------------------------------------------------------------
B----------------------------------------------------------------
G10---10----10101010----1010-----5-----5-----5----5-----5--------
D-8----8-----8-8-8-8-----8-8-----3-----3-----5----5-----5--------
A-8----8-----8-8-8-8-----8-8-----3-----3-----3----3-----3--------
D-8----8-8-8---------8-8-----0-3-3-----3-x-x--------2-2----------

Verses:

E10--10-x-x10-----10-x-x-10-10-x-x10--10-x-x10-----10---x-10-10-x-x-
B-------x-x----------x-x-------x-x-------x-x------------x-------x-x-
G-9---9-x-x-9h11--11-x-x-11-11-x-x-9---9-x-x-9h11--11---x-11-11-x-x-
D-0---0-x-x-0------0-x-x--0--0-x-x-0---0-x-x-0------0---x--0--0-x-x-
A-------------------------------------------------------------------
D-------------------------------------------------------------------

E10--10----x10---10---x10---x10-10--10----x10101010----10-----------
B-8---8----x-8----8---x-8---x-8-----------x---------------8b~~~~~~--
G----------x----------x-----x---10--10----x-9-9-9-9-----9-----------
D-0---0----x-0----0---x-0---x-0--0---0----x-0-0-0-0-----0-0---------
A-------------------------------------------------------------------
D-------------------------------------------------------------------

E10--10-x-x10-----10-x-x-10-10-x-x10--10-x-x10-----10---x-10-10-x-x-
B-------x-x----------x-x-------x-x-------x-x------------x-------x-x-
G-9---9-x-x-9h11--11-x-x-11-11-x-x-9---9-x-x-9h11--11---x-11-11-x-x-
D-0---0-x-x-0------0-x-x--0--0-x-x-0---0-x-x-0------0---x--0--0-x-x-
A-------------------------------------------------------------------
D-------------------------------------------------------------------

E10--10----x10---10---x10---x10-------------------------------------
B-8---8----x-8----8---x-8---x-8-------------------------------------
G----------x----------x-----x--------5------5-----------------------
D-0---0----x-0----0---x-0---x-0------3------5-----------------------
A--------------------------------x--3------3-----------------------
D--------------------------------x--3------2-----x-x-x-x-x-x-x-x-x-

Chorus: x2

E-----------------------------------------------------------------------------
B-----------------------------------------------------------------------------
G-----------------------------------------------------------------------------
D-----------------------------------------------------------------------------
A-10-12--10-12--10-12--10-12-------10-12--10-12--10-12--10-12-----------------
D-10-12--10-12--10-12--10-12-------10-12--10-12--10-12--10-12-x-x-x-x-x-x-x-x-

E--------------------------------------------------------------------
B--------------------------------------------------------------------
G-3-3-3/5----5/7-7-7-710101010-----7----7-x-x--7------7-x-7-7--------
D-x-x-x-x----x-x-x-x-x-x-x-x-x-----5----5-x-x--5------5-x-5-5---5----
A-1-1-1/3----3/5-5-5-5/8-8-8-8-----5----5-x-x--5------5-x-5-5---5----
D------------------------------x-x-5----5-x-x--5------5-x-5-5---5p0--

On 2nd chorus:

E----------------------------------------------------------------------------
B----------------------------------------------------------------------------
G-3-3-3/5----5/7-7-7-710101010-----7----7-x-x--7--7-7-7-7-7----------x-x-x-x-
D-x-x-x-x----x-x-x-x-x-x-x-x-x-----5----5-x-x--5--x-x-x-x-x----------x-x-x-x-
A-1-1-1/3----3/5-5-5-5/8-8-8-8-----5----5-x-x--5--5-5-5-5-5----------x-x-x-x-
D------------------------------x-x-5----5-x-x--5-----------------------------

Bridge:

E-5----5-5-x---------------------5----5-5-x---------------------
B-5----5-5-x-7-------------------5----5-5-x-7-------------------
G-7----7-7-x-7------7------7--7--7----7-7-x-7------7------7--7--
D-7----7-7-x-7------7------7--7--7----7-7-x-7------7------7--7--
A-5----5-5-x-7h9----9-9-9--9--9--5----5-5-x-7h9----9-9-9--9--9--
D------------0------0------0--0-------------0------0------0--0--

E-------------------------------------------------------------
B-------------------------------------------------------------
G10---10----101010----1010---------------5----5------5-5---5--
D-8----8-----8-8-8-----8-8------3----3-3-5----5------5-5---5--
A-8----8-----8-8-8-----8-8------3----3-3-3----3------3-3---3--
D-8----8-8-8-------8-8-----0-3--3----3-3-2----2-2-2-----------

That’s all

Trevor jones
[email protected]

Log In to leave a comment

After registration we will return you to the same place
Comments
face-with-monocle
If you wait a bit, some comments may appear here...

Shhh...