Loading...
Home Grown logo

Bad News Blair Home Grown

  • 0
  • Share
  • Transposing
    0
  • Font Size
Song- Bad News Blair
Band- Home Grown
Album- Act Your Age
Tabbed By- Jesse Krupocin ([email protected])
Email with suggestions and requests

**Watch for order of song, notes in there to guide**

Intro
F# :----------------------------------------------------------------|
C# :-------------------5-----------------------------------------5--|
Ab :--0-1-------0-1-333-3-------0000011111-----888887777755555333-3-|
D# :1-----3---1------------11111----------33333---------------------|

Part 1
F# :-----------------------------------------|
C# :--------532--333-2------232h3p2----------|
Ab :11101233---3------53--33--------111012-3-|
D# :-----------------------------------------|

Part 2
F# :-------------------0002333-|
C# :33----333----33------------|
Ab :---533---311---533---------|
D# :---------------------------|

Fill 1 (now shes calling your house....)
F# :-------------------------------------------|
C# :-----------------------6797-976-4575---9---|
Ab :-----0000011111-------7----6---5----777-7--|
D# :11111----------33333-----------------------|

Back to Part 1

Part 3 (girl thats gonna break your heart again...)
F# :--------------|
C# :333----23-----|
Ab :---5333-------|
D# :--------------|

Followed by.. (played twice)
F# :-------------------------------------------|
C# :---------------------------------32-23532--|
Ab :0111113333300000555551111333333----3-------|
D# :-------------------------------------------|

Then Part 1 during guitar solo

Followed by Part 2 with some variations such as:
F# :--320--|
And others thrown in, easy to figure out...

Followed by..
F# :--------------------------------|
C# :----------2-----------------5---|
Ab :---0--1---3-----8--7--5--333-3--|
D# :1-------------------------------|

Part 1 one more time
Then Part 3 one more time

Log In to leave a comment

After registration we will return you to the same place
Comments
face-with-monocle
If you wait a bit, some comments may appear here...

Shhh...