Hollywood Undead logo

Paradise Lost Hollywood Undead

  • 0
  • Share
  • Transposing
    0
  • Font Size
Hollywood Undead – Paradise Lost
Intro:
D5 C5 A#5 A5 D5 C5 A#5 A5
1)-5-----6------3-----5------1-----3------0---------------------------------------------------------------
2)---3-3---3-3----3-3---3-3----3-3---3-3----3-2-----------------------------------------------------------
3)------------------------------------------------2-3-0---2-----0-----2-----0-----3-----0------0----------
4)----------------------------------------------------------3-3---2-2---3-3---2-2---3-3---2-2----3-2--0---
5)------------------------------------------------------------------------------------------------------4-

Verse:
A#5
So watch my chest heave
C5
As this last breath leaves me
D5 (V)
I am trying to be
D5
What you're dying to see

A#5
Feel like "Fuck man, can't take this
C5
Anymore - this heart breaks"
D5 (V)
This is life that's so thankless
D5
How could he just forsake us?

A#5
Breaks us he makes us,
C5
Hate us he gave us
D5 (V)
Nothing but no trust
D5
And I am so fucked up

A#5
So let this gun bond us
C5
Let's hide by this lust
D5 (V)
And once we are just dust
D5
He'll know that he loved us

Chorus:
A#5
Let it all burn
C5 D5
I will burn first 3)-7-------7-------7-------7------
D5 4)-7--0-0--7--0-0--7--0-0--7--0-0-
God I've tried, am I lost in your eyes? 5)-5--0-0--5--0-0--5--0-0--5--0-0-
6)----0-0-----0-0-----0-0-----0-0-
A#5
Just let me burn
C5
It's what I deserve
D5
God I've lied, am I lost in your eyes?

Verse:
A#5
So take me and make me
C5
Weaken and save me
D5 (V)
This hate that you gave me
D5
Keeps saying the same thing

A#5
To sing when you hurt and
C5
To sing when you cry
D5 (V)
To sing when you live and
D5
To sing when you die

A#5
And here at the end
C5
At the end of the hurt
D5 (V)
All the pain ain't the same

When it's your turn to burn

A#5
We're the hearts for the heartless
C5
The thoughts for the thoughtless
D5 (V)
The lies for the honest
D5
We're the gods of the godless

Chorus:
A#5
Let it all burn
C5 D5
I will burn first 3)-7-------7-------7-------7------
D5 4)-7--0-0--7--0-0--7--0-0--7--0-0-
God I've tried, am I lost in your eyes? 5)-5--0-0--5--0-0--5--0-0--5--0-0-
6)----0-0-----0-0-----0-0-----0-0-
A#5
Just let me burn
C5
It's what I deserve
D5
God I've lied, am I lost in your eyes?

Bridge:
D5 (V) G5
So cry three tears for me
F5
When it's all gone
A5
Sing me this song

D5 (V) G5
So cry three tears for me
F5
When it's all gone
A5
When it's all gone

D5 (V)
I can not stand
G5
Who I am. I'm this man
F5
With this blood on my hands
A5
In this blood I am damned

D5 (V)
So watch my wings burn
G5
As they burn in the fire
F5
Don't scatter the ashes
A5
No need for the choir

Chorus:
A#5
Let it all burn
C5 D5
I will burn first 3)-7-------7-------7-------7------
D5 4)-7--0-0--7--0-0--7--0-0--7--0-0-
God I've tried, am I lost in your eyes? 5)-5--0-0--5--0-0--5--0-0--5--0-0-
6)----0-0-----0-0-----0-0-----0-0-
A#5
Just let me burn
C5
It's what I deserve
D5
God I've lied, am I lost in your eyes?

A#5 C5
This hate that you gave me keeps saying
D5 D5
Just let me burn, just let me burn

A#5 C5
This hate that you gave me keeps saying
D5 D5
Just let me burn, just let me burn

Outro: 3)-7-------7-------7-------7------
D5 4)-7--0-0--7--0-0--7--0-0--7--0-0-
Burn! (NOW!) Burn! 5)-5--0-0--5--0-0--5--0-0--5--0-0-
6)----0-0-----0-0-----0-0-----0-0-
D5
Just let me burn! (NOW!) Burn!
D5
Burn!

Log In to leave a comment

After registration we will return you to the same place
Comments
face-with-monocle
If you wait a bit, some comments may appear here...

Shhh...

Most Popular
You Might Like