HIM logo

Wings Of A Butterfly HIM

  • 4
  • Share
  • Transposing
    0
  • Font Size
HIM – Wings Of A Butterfly
Intro:
E|-------------------------------|-------------------------|-----------------------------|
B|-------------------------------|-------------------------|-----------------------------|
G|-14----14----14-12h14p12----12-|-------12----12----12----|-12----12----12-10h12p109-10-|
D|----12----12-------------------|----10----10----10----10-|----10----10-----------------|
A|-------------------------------|-------------------------|-----------------------------|
E|-------------------------------|-------------------------|-----------------------------|
---3--- ---3---

________________________ ______________________
1. ||2.
|-----------------------||-----------------------|
|-----------------------||-----------------------|
|-------10----10---9--о-||-------10----10----9---|
|---------------------о-||----------------10-----|
|----10----10-----------||----10----10-----------|
|-----------------------||-----------------------|

|---------------------------------|-------------------------|-----------------------------|
|---------------------------------|-------------------------|-----------------------------|
|-о-14----14----14-12h14p12----12-|-------12----12----12----|-12----12----12-10h12p109-10-|
|-о----12----12-------------------|----10----10----10----10-|----10----10-----------------|
|---------------------------------|-------------------------|-----------------------------|
|---------------------------------|-------------------------|-----------------------------|
---3--- ---3---

___________________________ ______________________
1. ||2.
|--------------------------||-----------------------|
|--------------------------||-----------------------|
|-------10----10----9----о-||-----------------------|
|----------------10---10-о-||-----------------------|
|----10----10--------------||-----------------------|
|--------------------------||-----------------------|

Intro: Bm A | A G | G Asus4 A
Bm A | A G | G Asus4 A
Bm A | A G | G Asus4 A
Bm A | A G |

Verse 1:
Bm A
Heaven ablaze in our eyes
A Bm
We're standing still in time
Bm A
The blood on our hands is the wine
A Bm
We offer as sacrifice

Chorus 1:
A Bm A
Come on and show them your love
A G
Rip out the wings of a butterfly
A Bm A
For your soul, my love
A G
Rip out the wings of a butterfly
A Bm
For your soul

Interlude 1: Bm A | A G

Verse 2:
Bm A
This endless mercy mile
A Bm
We're crawling side by side
Bm A
With hell freezing over in our eyes
A Bm G
Gods kneel before our crime

Chorus 2:
A Bm A
Come on and show them your love
A G
Rip out the wings of a butterfly
A Bm A
For your soul, my love
A G
Rip out the wings of a butterfly
A Bm A
For your soul
A G
(Rip out the wings of a butterfly)
A Bm A
Don’t let go
A G
(Rip out the wings of a butterfly)
A Bm
For your soul

Interlude 2: Em G | Em G

Chorus 3:
A Bm A
Come on and show them your love
A G
Rip out the wings of a butterfly
A Bm A
For your soul, my love
A G
Rip out the wings of a butterfly
A Bm A
For your soul
A G7
(Rip out the wings of a butterfly)
A Bm A
Don’t let go
A G
(Rip out the wings of a butterfly)
A Bm
For your soul

Log In to leave a comment

After registration we will return you to the same place
Comments
face-with-monocle
If you wait a bit, some comments may appear here...

Shhh...