Hendrix Jimi logo

Red House Hendrix Jimi

  • 0
  • Share
  • Font Size
Hendrix Jimi – Red House
  intro
G|------------------|3-3---3-36-53-3---3-36-810-1012-1213-1312-|
D|------------------|---3-5---------3-5------------------------|
A|------------------|------------------------------------------|
E|6-6-6-6-6-6-6-6-6-|------------------------------------------|

G|-----3-3---3-36-810-1012-1210-1012-1210-1210--1210---|
D|--3-1---3-5---------------------------------12-------|
A|-----------------------------------------------------|
E|-1---------------------------------------------------|

E|-1210-1012-1210-1012-10--------|
B|--------------------------3-1--|
G|-------------------------------|
D|-----------------------1-1---1-|

verse (will work for all verses)
G|-10-1012-1213-1312-103-3---3-36-510-1012-1210-1012-1210-|
D|------------------------3-5-----------------------------|
A|--------------------------------------------------------|
E|--------------------------------------------------------|

G|--36-53-3---3-36-810-1012-1210-1012-1210-1012-1210-1012-|
D|---------3-5--------------------------------------------|
A|--------------------------------------------------------|
E|--------------------------------------------------------|

G|---------------------3-5--|
D|--------------------------|
A|--------------------------|
E|-1012-1213-1312-103-3---3-|

G|-10--------------3---3-36-510-1012-1210--|
D|------3-3---3-31--3-5--------------------|
A|-----------------------------------------|
E|---1-1---1-1-----------------------------|

G|-1012-1210-1210--1210---|
D|---------------12-------|
A|------------------------|
E|------------------------|

solo (much like the verse)
G|10-1012-1213-1312-103-3---3-365410-1012-1213-1312-1210--|
D|-----------------------3-5------------------------------|
A|--------------------------------------------------------|
E|--------------------------------------------------------|

G|-1012-1213-1312-103-3---3-|
D|---------------------3-5--|
A|--------------------------|
E|--------------------------|

G|-36543-3---3-36-810-1012-1210-1012-1210-1012-1210-1012-|
D|--------3-5--------------------------------------------|
A|-------------------------------------------------------|
E|-------------------------------------------------------|

G|-10--------------3---3-365410-1012-1210-1012-1210-1210--1210-|
D|------3-3---3-31--3-5-------------------1012-1210-1210--1210-|
A|------------------------------------------------------12-----|
E|---1-1---1-1-------------------------------------------------|

Log In to leave a comment

After registration we will return you to the same place
Comments
face-with-monocle
If you wait a bit, some comments may appear here...

Shhh...

Versions

Most Popular
You Might Like