Hendrix Jimi logo

Firepile Hendrix Jimi

  • 0
  • Share
  • Transposing
    0
  • Font Size
Hendrix Jimi – Firepile
    E      A      B
E|-------|---5---|---7---|
B|-------|---5---|---7---|
G|---1---|---6---|---8---|
D|---2---|---7---|---9---|
A|---2---|---7---|---9---|
E|-------|---5---|---7---|

Intro:

E A B A

E
This is him...
A B A E A B A

E A A
Call him tied...
E A B
A E
A B A
E A B A

E
Don't give away...
A
B A
E A
B A

E
The sidewalk's...
A B A
E
A B A E A
B A E

E|-----|
B|-----|
G|-----|
D|-----|
A|--7--|
E|-----|

E||-------------------------------|
B||-------------------------------|
G||.------------------------------|
D||.------------------------------|
A||-------------------------------|
E||--0-3-0-3-3s5----0-0-0-3s12-12-|

E|--------------------------------|
B|--------------------------------|
G|-------------------------------.|
D|-------------------------------.|
A|---------0-2-2-2s10-12-12-10-7--|
E|-0-3-0-3------------------------|

E|-----------------------------------------------|
B|-----------------------------------------------|
G|---------------------------------------------1-|
D|-----5-------5-5-7-7-9-9-7-5s2--2s9-7-5------2-|
A|-7-7---7---7----------------------------5----2-|
E|-----------------------------------------------|

E A
Your baby's...
B A E
A
B A E A
B A E A
B A E

E|-----------------------------------------------|
B|-----------------------------------------------|
G|-----------------------------------------------|
D|-----------------------------------------------|
A|-5-7----5---5-7----5---5-7-7s10-9-10-9-5-5-7---|
E|---------7-------------7-----------------------|

Log In to leave a comment

After registration we will return you to the same place
Comments
face-with-monocle
If you wait a bit, some comments may appear here...

Shhh...