Loading...
Helloween logo

Where The Rain Grows Helloween

  • 0
  • Share
  • Transposing
    0
  • Font Size
Helloween
Where The Rain Grows
Bass Tab

This is the coolest riff in the song.

Perhaps I'll get around to doing more later.
Too bad I don't have more free time, and or have been playing for
More than a couple months...

G -------------------------------------------------
D -------------------------------------------------
A -------------------------------------------------
E -11---7----9---10-11-0----11-11-7---7-7-9----9-9-

G -------------------------------------------
D -------------------------------------------
A -------------------------------------------
E -911-11-13-13-15-15-13 11-7-7-7-7-9-9-9-9-

G ------------------------------------------
D ------------------------------------------
A --------------------11-13-----------------
E -11-11-13-13-15-15-------7-7-7-7-9-9-9-9-

More later...

G ------------------------------------------
D ------------------------------------------
A -----6-----6-8----------------------------
E -7-9---7-9-----8--------------------------

If you're reading this, that means you play bass. Help me out here dammit!

Log In to leave a comment

After registration we will return you to the same place
Comments
face-with-monocle
If you wait a bit, some comments may appear here...

Shhh...

Most Popular
You Might Like