Helloween logo

A Tale That Wasnt Right Helloween

  • 0
  • Share
  • Transposing
    0
  • Font Size
Helloween – A Tale That Wasnt Right
       Am         Em
Here I stand all alone
Am Fm
Have my mind turned to stone
Dm Am
Have my heart filled up with ice
Em Am G
To avoid it´s breakin´ twice

Am Em
Thanx to you, my dear old friend
Am Fm
But you can´t help, this is the end
Dm Am
Of a tale that wasn´t right
Em Am
I won´t have no sleep tonight

Chorus:
F5 G5 A5 G5
In my heart, in my soul
F5 C5 A#5 G5
I really hate to pay this to-ll
F5 G5 A5 G5
Should be strong, young and bold
F5 E5 A5
But the only thing I feel is pain

Am Em
It´s alright, we´ll stay friends
Am Fm
Trustin´ in my confidence
Dm Am
And let´s say it´s just alright
Em Am
You won´t sleep alone tonight

Chorus:
F5 G5 A5 G5
In my heart, in my soul
F5 C5 A#5 G5
I really hate to pay this to-ll
F5 G5 A5 G5
Should be strong, young and bold
F5 E5 A5
But the only thing I feel is pain

Solo:
F5 G5 E5
E|---------------------------------------------------------------|
G|---------------------------------------------------------------|
G|-----------------9--12--9-/10----------------7--10--7-/-9------|
D|---7--9--10-7-------------------5--7--9--5---------------------|
A|-7----------------------------5--------------------------------|
E|---------------------------------------------------------------|

D5 E5 A5 F5
|-----------------------------------------------------------|
|-----------------------------------------------------------|
|---------------------15--17-15--------------------7--------|
|---3--5--7--3---7-------------15--------7--9--10----7------|
|-3------------------------------------7--------------------|
|-----------------------------------------------------------|

F5 G5 A5 G5
With my heart, with my soul
F5 C5 # A5 G5
Some guys cry you bought and so-ld
F5 G5 A5 G5
They´ve been strong, young and bold
F5 E5
And they say, play this song again

Chorus:
F5 G5 A5 G5
In my heart, in my soul
F5 C5 A#5 G5
I really hate to pay this to-ll
F5 G5 A5 G5
Should be strong, young and bold
F5 E5 A5
But the only thing I feel is pain

Log In to leave a comment

After registration we will return you to the same place
Comments
face-with-monocle
If you wait a bit, some comments may appear here...

Shhh...