Loading...
Heideroosjes logo

Iedereen Is Gek Behalve Jij Heideroosjes

  • 0
  • Share
  • Transposing
    0
  • Font Size
I think this tab is good I hope it is! And else you just have to do it better!! Ha!

E----------------------
B----------------------
G-----8-8-10-10--------
D-7-7-8-8-10-10-10-10--
A-7-7-6-6--8--8-10-10--
E-5-5------------8--8--
pm.................

E-----------------------
B-----------------------
G-----8-8-10-10--------*
D-7-7-8-8-10-10-10--10-*
A-7-7-6-6--8--8-10--10--
E-5-5------------8---8--
pm............ ^tap^tap

Log In to leave a comment

After registration we will return you to the same place
Comments
face-with-monocle
If you wait a bit, some comments may appear here...

Shhh...

Most Popular