Loading...
Heideroosjes logo

Cant Stand Your Face Today Heideroosjes

  • 0
  • Share
  • Transposing
    0
  • Font Size
HEIDEROOSJES - CAN'T STAND YOUR FACE (from FAST FORWARD)
Tabbed by David van G.

RIFF1 (*=8x, #=4x) RIFF2 RIFF3
E-------(play 3x)-------|--------(play 2x)----|---------(play 4x)--------|---
B---*--------#----------|-------#-------------|------#--#--#-----#-------|--*
G--9------8-6----#---#--|---#--7----#---#-----|---#-7--9--9---#-7---#--#-|-9-
D--9------8-6---6---7---|--4---7---7---7---6--|--9--7--9--9--9--7--7--7--|-9-
A--7------6-4---6---7---|--4---5---7---7---6--|--9--5--7--7--9--5--7--7--|-7-
E---------------4---5---|--2-------5---5---4--|--7-----------7-----5--5--|---
2x the whole line through
Then go to the bridge
BRIDGE
E------------------------------------------------------------------------------
B----------------*-------------------------------------*------------------*----
G-----------7-7-9--------------7-7--*-------------7-7-9--------------7-7-9-----
D--7-7-7-77-7-7-9-----7-7-7-77-7-7-9-----7-7-7-77-7-7-9-----7-7-7-77-7-7-9-----
A--7-7-7-77-5-5-7-----7-7-7-77-5-5-9-----7-7-7-77-5-5-7-----7-7-7-77-5-5-7-----
E--5-5-5-55-----------5-5-5-55-----7-----5-5-5-55-----------5-5-5-55-----------

Play riff 3 once trough

Here you go, a cool song by de heideroosjes

*the song is tabbed by David van G. , but i modified it a little,
But all credits go to this guy, he did a hell of a job, respect man

Capo the punk :[email protected]
Mail me if you got any comments or suggestions or if you just
Want to call me names.

Log In to leave a comment

After registration we will return you to the same place
Comments
face-with-monocle
If you wait a bit, some comments may appear here...

Shhh...

Most Popular