Headstones logo

Tweeder And The Monkeyman Headstones

  • 0
  • Share
  • Font Size
Headstones – Tweeder And The Monkeyman
Transcribed by: Gerald Kisoun
Here's the basics:
Intro,verse,chorus: chords
|--------|--2----|-------|--------|
|--0-----|--3----|--2----|---0----|
|--1-----|--2----|--2----|---1----|
|--2-----|--0----|--2----|---2----|
|--2-----|-------|--0----|---2----|
|--0-----|-------|-------|---0----|

Pre verse: palm muted
|--------|-------|-------|--------|
|--------|--3----|-------|--------|
|--------|--2----|-------|---4----|
|--------|--0----|--2----|---2----|
|--2-----|-------|--0----|--------|
|--0-----|-------|-------|--------|

Part after chorus: guitar 1
|---------------------------------|--0-----|
|---------------------------------|--3---0-|
|---------------------------------|--0---1-|
|------------------5--------------|--0---2-|
|--------5----7--------7---5---7--|--2---2-|
|---/7----------------------------|--3---0-|

Part after chorus: guitar 2
|---------------------------------|--0-----|
|---------------------------------|--3---0-|
|----------------12---------------|--0---1-|
|--------12--14------14--12--14---|--0---2-|
|---/12---------------------------|--2---2-|
|---------------------------------|--3---0-|

Log In to leave a comment

After registration we will return you to the same place
Comments
face-with-monocle
If you wait a bit, some comments may appear here...

Shhh...

Versions

Most Popular
You Might Like