Harrison George logo

Behind That Locked Door Harrison George

  • 0
  • Share
  • Transposing
    0
  • Font Size
Harrison George – Behind That Locked Door
Intro/riff (x2)
G# C# G# C# G# D#
E|--11-11--11--11/13\\11---8--8-8/9\\8---------|
B|--13-13--13--13/14\\13---9--9-9-------4--4--|
G|-------------------------------------5--3--|
D|-------------------------------------------|
A|-------------------------------------------|
E|-------------------------------------------|

C# G#
Why are you still crying?
A#m
Your pain is now through
D# C# G#
Please forget those teardrops
D#m7
Let me take them from you
D# C# G#
The love you are blessed with
A#m
This world's waiting for
D# C# Cm A#m
So let out your heart, please, please
G#
From behind that locked door

RIFF (x2)

It's time we start smiling
What else should I do
With only this short time
I'm gonna be here with you
And the tales you have taught me
From the things that you saw
Makes me want out your heart, please, please
From behind that locked door

RIFF (x2)

Solo
D# C# G# A#m
E|--3--6--9--13---11--16---13\\11--8-------|
B|-----------------------------------6\\1--|
G|----------------------------------------|
D|----------------------------------------|
A|----------------------------------------|
E|----------------------------------------|

D# C# G# D#m7
E|-------3--6--13---11--16--14/16/14--13/14/13--11/13\\11-|
B|--6\\4--------------------------------------------------|
G|-------------------------------------------------------|
D|-------------------------------------------------------|
A|-------------------------------------------------------|
E|-------------------------------------------------------|

And if my love goes
If I'm rich or I'm poor
Please let out my heart, please, please
From behind that locked door

G# C# G# C# A#m

From behind that locked door

G# C# G# C# A#m D# G#

Tabbed by Alex Yuminov

Log In to leave a comment

After registration we will return you to the same place
Comments
face-with-monocle
If you wait a bit, some comments may appear here...

Shhh...