Harper Ben logo

Waing On An Angel Harper Ben

  • 0
  • Share
  • Font Size
    15
Harper Ben – Waing On An Angel
I have seen this song many times and it is always done wrong.  I
Saw Ben play it in concert and this is the format he used.  The
Chorus is a little iffy so if you have any corrections feel free to
Email me.  Have fun.

 Capo on 1st fret
|----------------------------------------------||
|---------3--3-----3--3-----3--3-------3--3----||
|---------3--3-----3--3-----3--3p2-----2--2h3--|| verse
|----------------------------------------------||
|------1--------0------------------------------||
|------------------------3----------1----------||
 (repeat twice before singing)
     Waiting       on an angel
     One   to carry   me home
     Wont you come   to see me soon

|----------------------------------------------||
|--------3--3-------3--3---------3--3-----3--3-||
|--------3--3p2-----2--2h3-------3--3-----3--3-||
|---------------------------0------------------||
|-----1----------3---------------------3-------||
|----------------------------------------------||
      Cause   I   dont   want to  go   alone

|----------------------------------------------||
|--------3--3-------3--3---------3--3----------||
|--------3--3p2-----2--2h3-------3--3----------||
|----------------------------------------------||
|-----1----------3-----------1-----------------||
|----------------------------------------------||
     I  dont want to go alone  (repeat verse tab)

|----------------------------------------------||
|--------3--3-------3--3---------3--3-----3--3-||
|--------3--3p2-----2--2h3-------3--3-----3--3-|| chorus
|----------------------------------------------||
|----------------0----------1------------------||
|-----3--------------------------------1-------||

Log In to leave a comment

After registration we will return you to the same place
Comments
face-with-monocle
If you wait a bit, some comments may appear here...

Shhh...