Guns N Roses logo

New Rose Guns N Roses

  • 0
  • Share
  • Transposing
    0
  • Font Size
Guns N Roses – New Rose
Intro: (Riff 1)
D B E A
E|------------------------------------------|
B|------------------------------------------|
G|--X-X--7--4-4--9-9------------------------| Repeat
D|--X-X--7--4-4--9-9-7-7--------------------| 5X
A|--X-X--5--2-2--7-7-7-7--------------------|
E|-------------------5-5--------------------|

Riff 2
|------------------------------------------------|
|------------------------------------------------|
|------------------------------------------------| Repeat
|-10/1210-10-10--10-10-109/10-10-10-109/10-10-10-| 2x
|--8/108---8--8---8--8--87/8---8--8--87/8---8--8-|
|------------------------------------------------|

D DB
I`ve got a feeling inside of me
B B/D
Its gotta stay its gotta some way stay
D DB
I don`t know why I don`t know why
B B/D
Special things she`s got for me

Riff 2
I`ve got a new rose I`ve got a gun

Riff 2
Yeah I knew that I always would

Riff 2
I cant stop to mess around

Riff 2
I`ve got a brand new rose in town

D DB
See the sun see the sun n the sky
B B/D
Forget the rose and the_______ rides
D DB
Don`t you run away that way
B B/D
I`m coming back another day

Riff 2
I`ve got a new rose I`ve got a gun

Riff 2
Yeah I knew that I always would

Riff 2
I cant stop to mess around

Riff 2
I`ve got a brand new rose in town

|------------------------------------------|
|------------------------------------------|
|--X-X--7--4-4--9-9------------------------| Repeat
|--X-X--7--4-4--9-9-7-7--------------------| 5X
|--X-X--5--2-2--7-7-7-7--------------------|
|-------------------5-5--------------------|

|------------------------------------------------|
|------------------------------------------------|
|------------------------------------------------| Repeat
|-10/1210-10-10--10-10-109/10-10-10-109/10-10-10-| 2x
|--8/108---8--8---8--8--87/8---8--8--87/8---8--8-|
|------------------------------------------------|

In this next part play chord B, right after the lyrics end play
What is tabbed below the lyric line.......

B
I never thought this would happen to me
|----------------------------------------------|
|----------------------------------------------|
|--------------------------------------19B////-|
|----------------------------------------------|
|----------------------------------------------|
|----------------------------------------------|

B
On the same_______ machine
|-----------------------------------|
|-----------------------------------|
|-------------------------19B////21-|
|-----------------------------------|
|-----------------------------------|
|-----------------------------------|

B Repeat 2x [---------]
I never serve somebody in the same
|-----------------------------------------------------|
|------------------------------17B(17)-15-17-15-17-15-|
|-----------------------------------------------------|
|-----------------------------------------------------|
|-----------------------------------------------------|
|-----------------------------------------------------|

B
I never never never be too late
|------------------------------------------------------|
|------------------------------17B(17)-15-17-15-17-19B-|
|------------------------------------------------------|
|------------------------------------------------------|
|------------------------------------------------------|
|------------------------------------------------------|

|------------------------------------------|
|------------------------------------------|
|--X-X--7--4-4--9-9------------------------| Repeat
|--X-X--7--4-4--9-9-7-7--------------------| 5X
|--X-X--5--2-2--7-7-7-7--------------------|
|-------------------5-5--------------------|

D DB
I`ve got a feeling inside of me

B B/D
Its gotta stay its gotta some way stay

D DB
I don`t know why I don`t know why

B B/D
Special things she`s got for me

Riff 2
I`ve got a new rose I`ve got a gun

Riff 2
Yeah I knew that I always would

Riff 2
I cant stop to mess around

Riff 2
I`ve got a brand new rose in town

|------------------------------------------------|
|------------------------------------------------|
|------------------------------------------------| Repeat
|-10/1210-10-10--10-10-109/10-10-10-109/10-10-10-| Several times
|--8/108---8--8---8--8--87/8---8--8--87/8---8--8-|
|------------------------------------------------|

|--------|
|--------|
|--------|
|-9-7-7--|
|-9-7-7--|
|-7-5-5--|

Log In to leave a comment

After registration we will return you to the same place
Comments
face-with-monocle
If you wait a bit, some comments may appear here...

Shhh...