Guns N Roses logo

Locomotive Guns N Roses

  • 0
  • Share
  • Font Size
Guns N Roses – Locomotive
 intro
E|-------------------|-------------------------|
B|-------------------|-------------------------|
G|-------------------|-------------------------|
D|-------------------|-------------------------|
A|-0-0---0-0---0-0---|-0---0-0---0-0-0---0-----|
E|-----3-----3-----2-|---2-----2-------2---3-5-|

E|--------------------------|
B|--------------------------|
G|--------------------------|
D|--------------------------|
A|-0---0-0---0-0-0---0-0----|
E|---3-----3-------0-----2--|

E|-------------------------|-------------------------|
B|-------------------------|-------------------------|
G|-----------------------5-|-2-----------------------|
D|-----------------------5-|-2-----------------------|
A|-0---0-0---0-0-0---0-----|---0-0-0---0-0-0---0-----|
E|---2-----2-------2---3---|---------3-------3---0-2-|

E|-------------------|
B|-------------------|
G|-------------------|
D|-------------------|
A|0---0-0---0-0------|
E|--2-----2-----3-2-0|

E|-------------------|-----|-----|-----------------|
B|-------------------|-----|-----|-----------------|
G|-7h9--7h9-7---7--9-|-----|-----|-9--7h9----------|
D|-7h9--7h9-7---7--9-|--s--|--s--|-9--7h9---5----5-|
A|-7----7---7---7--7-|-----|-----|-7--7-----5----5-|
E|-------------------|-----|-----|----------3----3-|

One in a Million

Acoustic guitar..

Beginning of song..

Strum

[E-1] (slide) [E-2] [D] [C#] (play twice)

[C]

Second guitar...comes in after acoustic finishes.

(fill)
E|-------|
B|-------|
G|-5-5-5-|
D|-5-5-5-|
A|-3-3-3-|
E|-------|

(Main guitar riff)
E|---------------------------------------------------------|
B|-2-2h3p2-2-2---1-1---------------------------------------|
G|-2-2-----2-2-2-0-0-0-0-3p0---0-0-0-0-----4-0-------------|
D|-2-2h4p2-2-2-2-2-2-2-2-2---2-0-0-0-0---3---0-------------|
A|---------------3-3-3-3-3---3-2-2-2-2-2-------3---3---3/5-|
E|-----------------------------3-3-----3-------1-0-1-0-1/3-|

Play it over and over until you`re fingers bleed

(this is distorted guitar..light distortion)

That was how I played it....I don`t know if it`s right or not..

E-1 022100
E-2 x7990x

Log In to leave a comment

After registration we will return you to the same place
Comments
face-with-monocle
If you wait a bit, some comments may appear here...

Shhh...