Loading...
Group X logo

Good Girl Yes Bad Girl No Group X

  • 0
  • Share
  • Transposing
    0
  • Font Size
URL to official Group X page :
Country : Saudi Arabia (I think)
Albums: 40 oz. Slushie, Group X

Song: Good Girl Yes, Bad Girl No
Band: Group X
Album: Stepping on the Crowtch owf your Americain Presidaint

Intro/Verse
|----14----14----14----14-----------------------|
|----------------------------14-----------------|
|-12----12----12----12--------------------------|
|-------------------------12----12--10--8p7h8p7-|

Chorus
|-----------------------------------------------------|
|-----------------------------------------------------|
|-----------------------------------3-3-3-3-3-1-1-1-0-|
|-5-5-5-5-5-3-3-3--5-5-5-5-5-3-3-3--------------------|

Rap Part
|-14-------------------------------|
|-14---------14----------12-9h10p9-|
|---------14-------12-10-----------|
|------12-------10-----------------|

Log In to leave a comment

After registration we will return you to the same place
Comments
face-with-monocle
If you wait a bit, some comments may appear here...

Shhh...