Loading...
Grimskunk logo

Poser Punk Grimskunk

  • 0
  • Share
  • Transposing
    0
  • Font Size
Band: Grim Skunk plays... Fatal Illness
Song: Poser punk
Album: If we had brain, we'd eat them
Tabbed By: FaTSkUnK

Intro

E|----------------------------------|
B|----------------------------------|
G|----------------------------------|X2
D|-5-5-5-5-5-5-5-5-5-7-7-7-8-8-8-7--|
A|-5-5-5-5-5-5-5-5-5-7-7-7-8-8-8-7--|
E|-3-3-3-3-3-3-3-3-3-5-5-5-6-6-6-5--|

E|----------------------------------|----------------------------------|---|
B|----------------------------------|----------------------------------|---|
G|----------------------------------|----------------------------------|---|
D|-5-5-5-5-5-5-5-5-5-7-7-7-8-8-8-7--|-5-5-5-5-5-5-5-5-5-7-7-7-8-8-8-7--|-5-|
A|-5-5-5-5-5-5-5-5-5-7-7-7-8-8-8-7--|-5-5-5-5-5-5-5-5-5-7-7-7-8-8-8-7--|-5-|
E|-3-3-3-3-3-3-3-3-3-5-5-5-6-6-6-5--|-3-3-3-3-3-3-3-3-3-5-5-5-6-6-6-5--|-3-|
| |
E|----------------------------------|----------------------------------|---|
B|----------------------------------|----------------------------------|---|
G|--4b-Let-ring---------------------|--2b-Let-ring---------------------|---|
D|----------------------------------|----------------------------------|-5-|
A|----------------------------------|----------------------------------|-5-|
E|----------------------------------|----------------------------------|-3-|

Chorus

E|----------------------------------|---|
B|----------------------------------|---|
G|----------------------------------|---|
D|-5-5-5-5-5-5-5-5-5--7-7-7-8-8-8-7-|-5-|
A|-5-5-5-5-5-5-5-5-5--7-7-7-8-8-8-7-|-5-|
E|-3-3-3-3-3-3-3-3-3--5-5-5-6-6-6-5-|-3-|

- Chorus

X2 X4 X2 X2
E|------------|------------------|------------|------------------|---|
B|------------|------------------|------------|------------------|---|
G|------------|------------------|-5-5-7--8-7-|------------------|---|
D|-5-5-7--8-7-|-5-5-8-5--7-7-8-7-|-5-5-7--8-7-|-5-5-8-5--7-7-8-7-|-5-|
A|-5-5-7--8-7-|-5-5-8-5--7-7-8-7-|-3-3-5--6-5-|-5-5-8-5--7-7-8-7-|-5-|
E|-3-3-5--6-5-|-3-3-6-3--5-5-6-5-|------------|-3-3-6-3--5-5-6-5-|-3-|
pm.............. pm..............

X6
E|---------------|-----------|---|
B|---------------|-----------|---|
G|-7-7-7-7-7-7-7-|-7-7-7-9-8-|-7-|
D|-7-7-7-7-7-7-7-|-7-7-7-9-8-|-7-|
A|-5-5-5-5-5-5-5-|-5-5-5-7-6-|-5-|
E|---------------|-----------|---|

- Chorus

Log In to leave a comment

After registration we will return you to the same place
Comments
face-with-monocle
If you wait a bit, some comments may appear here...

Shhh...

Most Popular
You Might Like