• 0
  • Share
  • Transposing
    0
  • Font Size
Greyhoundz – Y
Song:Y?!
Album:seven corners of you game
Artist:greyhoundz
Tabbed:leander m.

Legend:
^press ped.pitch up
Vpress pedal pitch down
~let ring
.palm mute
()natural harmonics
Artificial harmonics

Tuned drop D
Intro:stanza
1ST PART 2ND PART 3rd part 4th part
^ v ^ v ^ v ^
E|--------------||-------------------||--14p12----12h14--||--12h14--|
B|--(12)~~~-----||--(12)~~~----------||--------16--------||---------|
G|--------------||-------------------||------------------||---------|
D|--------------||-------------------||------------------||---------|
A|--------------||-------------------||------------------||---------|
D|--------------||-------------------||------------------||---------|
^^^
repeat this I dont know how many times----|||
Guitar II(kasabay ng guitar I press ped.wah)just hear the song

Chorus
E|-----------------------------------|
B|-----------------------------------|
G|-----------------------------------|
D|--12-11-11-9--12-11-11-9--12-11-9--|
A|--12-11-11-9--12-11-11-9--12-11-9--|
D|--12-11-11-9--12-11-11-9--12-11-9--|
Repeat until end of chorus...syempre

Stanza
Chorus

Bridge:
E|------------------------------|--------------------------|
B|------------------------------|--------------------------|
G|------------------------------|--------------------------|
D|----------11---------7-----5--|--------11-------7-----5--|
A|--9-9-9-9----7-7-7-7---5-5----|--9-9-9----7-7-7---5-5----|
D|------------------------------|--------------------------|
. . . . . . . . . . . . . . . . . .
Fill me,drive me crazy,touch me
E|-----------------------------|
B|-----------------------------|
G|-----------------------------|
D|--5-5-5-5-5-6-3-3-3-3-4-1-2--|
A|--5-5-5-5-5-6-3-3-3-3-4-1-2--|
D|--5-5-5-5-5-6-3-3-3-3-4-1-2--|

Stanza
Chorus
Finale:(finalle same as riff II)

E|--------------------------| --(7)--|
B|--------------------------| -------|
G|--------------------------|(9x)-------|
D|--12-11-11-9--12-11-11-9--| -------|
A|--12-11-11-9--12-11-11-9--| -------|
D|--12-11-11-9--12-11-11-9--| -------|
End
Tabbed by:[email protected]
text/call09193216020

Log In to leave a comment

After registration we will return you to the same place
Comments
face-with-monocle
If you wait a bit, some comments may appear here...

Shhh...

Most Popular
You Might Like