Loading...
Green Day logo

Time Of Your Life Green Day

  • 0
  • Share
  • Transposing
    0
  • Font Size
Verse: (play each line twice, then go to chorus)
G C9 Dsus4
|-------3--------------3--------------3------------3-----|
|----------3-------------3--------------3------------3---|
|-------------0------------0--------------0-----2------2-|
|---0--------------0--------------2-----------0----------|
|------------------------------3-------------------------|
|-3--------------3---------------------------------------|
(Then it repeats, so it almost sounds like it goes C9 Dsus4 G
So, after the end of the Dsus4 bit, go straight to the G bass note.)

Em Dsus4 C9 G
|------3------------3-------------3------------3-----|
|--------3------------3-------------3------------3---|
|----------0-----2------2-------------0------------0-|
|---2----------0---------------2------------0--------|
|----------------------------3-----------------------|
|-0---------------------------------------3----------|
(The above line gets played twice, then this twice,
And that's the verse.)

G C9 Dsus4 G
Another turning point a fork stuck in the road
G C9 Dsus4 G
Time grabs you by the wrist directs you where to go
Em Dsus4 C9 G
So make the best of these days and don't ask why
Em Dsus4 C9 G
It's not a question but a lesson learned in time

Chorus:
Em G Em G
|------3------------3------------3-----------3-----|
|--------3------------3------------3-----------3---|
|----------0------------0------------0-----------0-|
|---2------------0------------2-----------0--------|
|--------------------------------------------------|
|-0------------3------------0-----------3----------|

Em Dsus4
|------3---------3------|
|--------3---------3----|
|----------0---------2--|
|---2----------0--------|
|-----------------------|
|-0---------------------|
(Okay, now, it's important that you go straight back into the
Opening G of the verse, because the Dsus4 sort of leaves you
Hanging there. Then play the first half of the verse once
Through, then start it all over again.)

Em G Em G
It's something unpredictable in the end it's right
Em Dsus4 G (where verse riff cuts back in)
I hope you have the time of your life.

G C Dsus4

Verse 2:
G C9 Dsus4 G
So take the photographs and stillframes in your mind
G C9 Dsus4 G
Hang it on a shelf; it could've been good times (

Em Dsus4 C9 G
Tatoos and memories and asking on trial
Em Dsus4 C9 G
For what it's worth it was worth all the while

Chorus:
Em G Em G
|------3------------3------------3-----------3-----|
|--------3------------3------------3-----------3---|
|----------0------------0------------0-----------0-|
|---2------------0------------2-----------0--------|
|--------------------------------------------------|
|-0------------3------------0-----------3----------|

Em Dsus4
|------3---------3------|
|--------3---------3----|
|----------0---------2--|
|---2----------0--------|
|-----------------------|
|-0---------------------|
(Okay, now, it's important that you go straight back into the
Opening G of the verse, because the Dsus4 sort of leaves you
Hanging there. Then play the first half of the verse once
Through, then start it all over again.)

Em G Em G
It's something unpredictable in the end it's right
Em Dsus4 G (where verse riff cuts back in)
I hope you have the time of your life.

G C Dsus4

Instrumental (Strum over Violins)

Chorus:
Em G Em G
|------3------------3------------3-----------3-----|
|--------3------------3------------3-----------3---|
|----------0------------0------------0-----------0-|
|---2------------0------------2-----------0--------|
|--------------------------------------------------|
|-0------------3------------0-----------3----------|

Em Dsus4
|------3---------3------|
|--------3---------3----|
|----------0---------2--|
|---2----------0--------|
|-----------------------|
|-0---------------------|
(Okay, now, it's important that you go straight back into the
Opening G of the verse, because the Dsus4 sort of leaves you
Hanging there. Then play the first half of the verse once
Through, then start it all over again.)

Em G Em G
It's something unpredictable in the end it's right
Em Dsus4 G (where verse riff cuts back in)
I hope you have the time of your life.

G C Dsus4

End:
|---------|
|---------|
|--2------|
|----0----|
|------0--| and end on a G
|---------|

Log In to leave a comment

After registration we will return you to the same place
Comments
face-with-monocle
If you wait a bit, some comments may appear here...

Shhh...