Good Riddance logo

Yesterdays Headlines Good Riddance

  • 0
  • Share
  • Font Size
    15
Good Riddance – Yesterdays Headlines
 YESTERDAYS HEADLINES - Good Riddance
-------------------------------------------------------------------------------

Tabbed by: strungout777
Email: manuel_ramones4life@gmx.at

Intro:
Guitar1
E|---------------------------------------------------------------------------|
B|---------------------------------------------------------------------------|
G|------------32/3-32/3-32/3-6-5-3-5--------------------------------------|
D|---------------------------------------------------------------------------|
A|---------------------------------------------------------------------------|
E|---------------------------------------------------------------------------|

Guitar2
E|---------------------------------------------------------------------------|
B|---------------------------------------------------------------------------|
G|--xxx-xxx-xxx--------------------------------------------------------------|
D|--xxx-xxx-xxx--------------------------------------------------------------|
A|--xxx-xxx-xxx--------------------------------------------------------------|
E|---------------------------------------------------------------------------|

Guitar1,2
E|---------------------------------------------------------------------------|
B|---------------------------------------------------------------------------|
G|---------------------------------------------------------------------------|
D|--8888888-66-8888888-66-8888888-66-8888888888------------------------------|
A|--8888888-66-8888888-66-8888888-66-8888888888------------------------------|
E|--6666666-44-6666666-44-6666666-44-6666666666------------------------------|

Verse1:
Guitar1,2
E|---------------------------------------------------------------------------|
B|---------------------------------------------------------------------------|
G|---------------------------------------------------------------------------|
D|--8888-66-33--8888-66-33--8888-66-33-8888----------------------------------|
A|--8888-66-33--8888-66-33--8888-66-33-8888-8---------xxx--------------------|
E|--6666-44-11--6666-44-11--6666-44-11-6666-64/64/6-xxx--------------------|
 xxxx xx xx  xxxx xx xx  xxxx xx xx xxxx

E|---------------------------------------------------------------------------|
B|---------------------------------------------------------------------------|
G|---------------------------------------------------------------------------|
D|--8888-66-33--8888-66-33--8888-66-33-88888888------------------------------|
A|--8888-66-33--8888-66-33--8888-66-33-88888888------------------------------|
E|--6666-44-11--6666-44-11--6666-44-11-66666666------------------------------|
 xxxx xx xx  xxxx xx xx  xxxx xx xx xxxx

Chorus1:
Guitar1
E|---------------------------------------------------------------------------|
B|---------------------------------------------------------------------------|
G|--33333-11111-66-55-66666--33333-11111-------------------------------------|
D|---------------------------------------3333333333--------------------------|
A|---------------------------------------------------------------------------|
E|---------------------------------------------------------------------------|

Guitar2
E|---------------------------------------------------------------------------|
B|---------------------------------------------------------------------------|
G|---------------------------------------------------------------------------|
D|--44444-66666-88-66-44444--44444-6666-44-8888-66-8888-66-------------------|
A|--44444-66666-88-66-44444--44444-6666-44-8888-66-8888-66-------------------|
E|--22222-44444-66-44-22222--22222-4444-22-6666-44-6666-44-------------------|

Guitar1
E|---------------------------------------------------------------------------|
B|---------------------------------------------------------------------------|
G|--33333-11111-66-55-66666--33333-2~----------------------------------------|
D|---------------------------------------------------------------------------|
A|---------------------------------------------------------------------------|
E|---------------------------------------------------------------------------|

Guitar2
E|---------------------------------------------------------------------------|
B|---------------------------------------------------------------------------|
G|---------------------------------------------------------------------------|
D|--44444-66666-88-66-44444--44444-3~---4-6-888888---------------------------|
A|--44444-66666-88-66-44444--44444-3~---4-6-888888---------------------------|
E|--22222-44444-66-44-22222--22222-1~---2-4-666666---------------------------|

Verse2:
Guitar1,2
E|---------------------------------------------------------------------------|
B|---------------------------------------------------------------------------|
G|---------------------------------------------------------------------------|
D|--8888-66-33--8888-66-33--8888-66-33-8888----------------------------------|
A|--8888-66-33--8888-66-33--8888-66-33-8888-8---------xxx--------------------|
E|--6666-44-11--6666-44-11--6666-44-11-6666-64/64/6-xxx--------------------|
 xxxx xx xx  xxxx xx xx  xxxx xx xx xxxx

E|---------------------------------------------------------------------------|
B|---------------------------------------------------------------------------|
G|---------------------------------------------------------------------------|
D|--8888-66-33--8888-66-33--8888-66-33-88888888------------------------------|
A|--8888-66-33--8888-66-33--8888-66-33-88888888------------------------------|
E|--6666-44-11--6666-44-11--6666-44-11-66666666------------------------------|
 xxxx xx xx  xxxx xx xx  xxxx xx xx xxxx

Chorus2:
Guitar1
E|---------------------------------------------------------------------------|
B|---------------------------------------------------------------------------|
G|--33333-11111-66-55-66666--33333-11111-------------------------------------|
D|---------------------------------------3333333333--------------------------|
A|---------------------------------------------------------------------------|
E|---------------------------------------------------------------------------|

Guitar2
E|---------------------------------------------------------------------------|
B|---------------------------------------------------------------------------|
G|---------------------------------------------------------------------------|
D|--44444-66666-88-66-44444--44444-6666-44-8888-66-8888-66-------------------|
A|--44444-66666-88-66-44444--44444-6666-44-8888-66-8888-66-------------------|
E|--22222-44444-66-44-22222--22222-4444-22-6666-44-6666-44-------------------|

Guitar1
E|---------------------------------------------------------------------------|
B|---------------------------------------------------------------------------|
G|--33333-11111-66-55-66666--33333-2~----------------------------------------|
D|---------------------------------------------------------------------------|
A|---------------------------------------------------------------------------|
E|---------------------------------------------------------------------------|

Guitar2
E|---------------------------------------------------------------------------|
B|---------------------------------------------------------------------------|
G|---------------------------------------------------------------------------|
D|--44444-66666-88-66-44444--44444-3~----------------------------------------|
A|--44444-66666-88-66-44444--44444-3~----------------------------------------|
E|--22222-44444-66-44-22222--22222-1~----------------------------------------|

Bridge:
Guitar1
E|---------------------------------------------------------------------------|
B|---------------------------------------------------------------------------|
G|---------------------------------------------------------------------------|
D|--444444-666666-888888888888--444444-666666-888888888888-------------------|
A|--444444-666666-888888888888--444444-666666-888888888888-------------------|
E|--222222-444444-666666666666--222222-444444-666666666666-------------------|
 xxxxxx xxxxxx xxxxxxxxxxxx  xxxxxx xxxxxx xxxxxxxxxxxx

Guitar1,2
E|---------------------------------------------------------------------------|
B|---------------------------------------------------------------------------|
G|---------------------------------------------------------------------------|
D|--444444-666666-888888888888--444444-666666-888888888888-------------------|
A|--444444-666666-888888888888--444444-666666-888888888888-------------------|
E|--222222-444444-666666666666--222222-444444-666666666666-------------------|
 xxxxxx xxxxxx xxxxxxxxxxxx  xxxxxx xxxxxx xxxxxxxx

Outro:
Guitar1
E|---------------------------------------------------------------------------|
B|---------------------------------------------------------------------------|
G|-33323333233332-3-6-5-3-5-----33323333233332-3-6-5-3-5---6~-5~-3~----------|
D|---------------------------------------------------------------------------|
A|---------------------------------------------------------------------------|
E|---------------------------------------------------------------------------|

Guitar2
E|---------------------------------------------------------------------------|
B|---------------------------------------------------------------------------|
G|---------------------------------------------------------------------------|
D|--444444-666666-888888888888--444444-666666-888888888888-4~----------------|
A|--444444-666666-888888888888--444444-666666-888888888888-4~----------------|
E|--222222-444444-666666666666--222222-444444-666666666666-2~----------------|

| /  slide up
|   slide down
| h  hammer-on
| p  pull-off
| ~  vibrato
| +  harmonic
| x  Mute note
==================================================

Log In to leave a comment

After registration we will return you to the same place
Comments
face-with-monocle
If you wait a bit, some comments may appear here...

Shhh...