Loading...
Good Charlotte logo

The Anthem Good Charlotte

  • 0
  • Share
  • Transposing
    0
  • Font Size
This is the way that i interperit the song
If you have any corrections or questions e - mail me at [email protected]

Intro#1 without guitar

Intro#2
G|----------------------------|
D|----------------------------|
A|4-44-4----------------------|
E|------4-44-4--2-22-2--4-44-4|

Verse
G|--------------------------------------------|
D|--------------------------------------------|
A|44-----------------44-----------------------| (times 2)
E|--44-44-22-44-44-44--44-44-22222222-44444444|

Pre-Chrous
G|-------------------------------------------------------------------|
D|-------------------------------------------------------------------|
A|11111111--------444444444444444444-11111111--------4444444444444444|
E|--------22222222---------------------------22222222----------------|

Chorus
G|--------------------------------|
D|--------------------------------|
A|4--------4--------4--------4----|
D|-44-22-44-44-22-44-44-22-44-44-2|

Intro#2
G|----------------------------|
D|----------------------------|
A|4-44-4----------------------|
E|------4-44-4--2-22-2--4-44-4|

Verse
G|--------------------------------------------|
D|--------------------------------------------|
A|44-----------------44-----------------------| (times 2)
E|--44-44-22-44-44-44--44-44-22222222-44444444|

Pre - Chorus
G|---------------------------------------------------------------|
D|---------------------------------------------------------------|
A|11111111--------444444444444444444-11111111--------444444444444|
E|--------22222222---------------------------22222222------------|

Chorus
G|--------------------------------|
D|--------------------------------|
A|4--------4--------4--------4----|
E|-44-22-44-44-22-44-44-22-44-44-2|

Bridge
G|----------------------------------------------------------|
D|----------------------------------------------------------|
A|-----------------------------------444444-----------------|
E|666666-444444-222222-444444-666666--------4444444444444444|

Intro#1

Chorus(play slower)
G|------------------------------------|
D|------------------------------------|
A|4--------4--------4--------4--------|
E|-44-22-44-44-22-44-44-22-44-44-22-44|

Chorus(play normal)
G|--------------------------------|
D|--------------------------------|
A|4--------4--------4--------4----|
E|-44-22-44-44-22-44-44-22-44-44-2|

End
G|-------------------|
D|-------------------|
A|44--------22------4|
E|--44-22-44--44-2-4-|

Log In to leave a comment

After registration we will return you to the same place
Comments
face-with-monocle
If you wait a bit, some comments may appear here...

Shhh...