Gomez logo

Make No Sound Gomez

  • 1
  • Share
  • Font Size
Gomez – Make No Sound
(Специально для Джем):)

(Riff1)
1|----5--x--2-----2--x--1---|---1--x--0----------------|
2|----3--x--0-----0--x--0---|---0--x--0------3-----0---|
3|----2--х--4-----4--х--4---|------x-------------------|
4------------------------------|
5|-2---------------------------------------|
6--4------------|-3-----------2------------|

1|----5--x--2-----2--x--1---|-1-(1)~-------------------|
2|----3--x--0-----0--x--0---|-0-(0)~-------------------|
3|----2--х--4-----4--х--4---|-0-(0)~-------------------|
4------------------------------|
5|-2------------------------------------0--|
6--4------------|-3-(3)~----------2--3-----|

(Riff2)
1------------------------------|
2|----------4------4--------|----------2------2--------|
3|-------4---------------4--|-------2---------------2--|
4|----4---------------------|----2---------------------|
5|-2------------2-----2-----|-0------------0-----0-----|
6------------------------------|

1------------------------------|
2|----------3------3--------|----------2------2--------|
3|-------4---------------4--|-------3---------------3--|
4|----5---------------5-----|----4---------------4-----|
5------------------------------|
6|-3------------3-----------|-2------------2-----------|

1------------------------------|
2|----------4------4--------|----------2------2--------|
3|-------4---------------4--|-------2---------------2--|
4|----4---------------------|----2---------------------|
5|-2------------2-----2-----|-0------------0-----0-----|
6------------------------------|

1-----------------2-(2)~-------|
2|----------3------3--------|----------2--2-(2)~-------|
3|-------4---------------4--|-------3------------------|
4|----5---------------5-----|----4---------------------|
5------------------------------|
6|-3------------3-----------|-2------------------------|

(Riff3)chourd: B/D/E...

Обозначения (на случай, если опять захотят мне на мыло вопрос скинуть:)))
--x--.......труна глушиться
-(0)~-......струна звучит дальше

Be´s fine, don´t make no sound, he´s fine
She´s fine but been around, she´s fine
Said to her there´s beauty
But all she sees is pain
Be´s fine, don´t be unkind, he´s fine
She´s fine but wasting time
Said to her there´s beauty
But all she sees is pain
Be´s fine, don´t give no sign, he´s fine
She´s fine, she´s fine, she is fine
Said to her there´s beauty
But all she sees is pain
Said to her there´s beauty in your eyes, in your eyes, in your eyes, in your eyes

Дерзайте и удачи!

Log In to leave a comment

After registration we will return you to the same place
Comments
face-with-monocle
If you wait a bit, some comments may appear here...

Shhh...