• 0
  • Share
  • Font Size
Goldfinger – Youth
I noticed that this site only had solos submitted for this song, so I decided
To enter in this full version of the song (for everyone who wants to learn it).
The only thing disapointing about this song is the way it end on an off note
(if you've heard it you know what I'm talking about). Here you go:

Song: Youth
Band: Goldfinger
Album: Open Your Eyes
Tabber: Greenfinger182

There is no intro to this song. It starts right into the verse.

Verse:

----------------------------------------------------------------------------|
----------------------------------------------------------------------------|
-77777777-------------------------------------------------------------------|
-77777777--7777777---999999-----5555555-------------------------------------|
-55555555--7777777---999999-----5555555-------------------------------------|
-----------5555555---777777-----3333333-------------------------------------|
In my life been all the places that I've
Dreamed of since I was a kid.
Buried the past, getting on with thing I
Never thought I'd get through.

-------------|
-------------|
-------------|
-77777777777-
-77777777777-
-55555555555-
So now I know

Chorus: Same as verse.

I don't know anything except I noticed that
You're still here.
I don't want anything, well that's a lie because I
Want you here with me.

Right after the chorus play this:

----------------------------------------------------------|
----------------------------------------------------------|
----------------------------------------------------------|
--7--7--7--7--5--4--5--4--0--2----------------------------|
----------------------------------------------------------|
----------------------------------------------------------|

2nd verse: same as first.

2nd chorus: same as first

Bridge
-------------------------------------------------------------------------|
-------------------------------------------------------------------------|
-444444--------777777-------------99999999999999999999999----------------|
-444444--------777777-------------99999999999999999999999----------------|
-222222--------555555-------------77777777777777777777777----------------|
-------------------------------------------------------------------------|
Don't want it back. I like what I've become.
I run on track. I'm feeling half as young

Then
-----------------------------|
-----------------------------|
-----------------------------|
-4444444444444444444444-4-4--|
-4444444444444444444444-4-4--|
-2222222222222222222222-2-2--|
As I did when I was a kid

Solo:

------------------------------------------------------------------------|
--10-10-10-10--5--5--8--8--8--7--5--3--0--7--7--7--5--7--5--3-----------|
------------------------------------------------------------------------|X2
------------------------------------------------------------------------|
------------------------------------------------------------------------|
------------------------------------------------------------------------|

Then this:

--------------------------------------------------------------------------|
--------------------------------------------------------------------------|
-----7----------------9---------------------------7--------------9-----12-|
-----7----------------9---------------------------7--------------9-----12-|
-5---5----------------7------------------------5--5-----------7--7-----10-|
-------------------0------------------------------------------------------|
In my life Been all the places that I've dreamed of since I was a kid

Then do the chorus one more time. This song ends on an off note, which I think ruins it,
But at least the rest of the song is good. Here's how you end it:

------------------|
------------------|
------------------|
-7--7---6---------|
-7--7---6---------|
-5--5---4---------|

But if you're planning on playing this somewhere, I would end it with this right after the chorus:

--------------|
--------------|
------7-------|
------7-------|
------5-------|

Check out my other tabs. Enjoy.
--------------

Log In to leave a comment

After registration we will return you to the same place
Comments
face-with-monocle
If you wait a bit, some comments may appear here...

Shhh...

Most Popular
You Might Like