Loading...
Goldfinger logo

Open Your Eyes Goldfinger

  • 0
  • Share
  • Transposing
    0
  • Font Size
Artist: Goldfinger
Song: Open Your Eyes
Album: Open Your Eyes
Tabbed by: Ben Godby [email protected]

None of the versions of this song on this site are correct... there's actually
A couple things wrong with them. So here it is, 100% correct, I tabbed this with
Another guy who has a really good ear and it's not like it's hard in the first
Place, the other people who tabbed this song are just retarded.

* = harmonic
PM = palm mute

Intro/Verse
E|---------------------------------|
B|---------------------------------|
G|---------------------------------|
D|---------------------------------|
A|---------2-2-2-2---------5-5-5-5-|
E|-0-0-0-0---------3-3-3-3---------|
PM..................................

Pre-Chorus
E|------------*5*--|
B|------------*5*--|
G|------------*5*--|
D|-7-----5---------|
A|-5-x16-3-x16-----|
E|-----------------|
PM............

Chorus
E|---------------------------------|
B|---------------------------------|
G|---------------------------------|
D|---------4-4-4-4---------7-7-7-7-|
A|-2-2-2-2-2-2-2-2-5-5-5-5-5-5-5-5-|
E|-0-0-0-0---------3-3-3-3---------|

Bridge
Guitar 1
E|-------------|
B|-------------|
G|-------------|
D|-------5-----|
A|-2-----3-x16-|
E|-0-x16-------|

Guitar 2
E|-0---0---0---0---|
B|---0---0---0---0-|
G|-----------------|
D|-----------------|
A|-----------------|
E|-----------------|

There's (technically) a third guitar too, just scratching the pick over the
Humbuckers and messing around... not exactly tough, but it's punk.

And that's pretty much it... outro is an E5 sixteen times then a few crunchy
Accented notes on a C5. That's it.

Log In to leave a comment

After registration we will return you to the same place
Comments
face-with-monocle
If you wait a bit, some comments may appear here...

Shhh...