Loading...
Godsmack logo

Keep Away Godsmack

  • 0
  • Share
  • Transposing
    0
  • Font Size
Godsmack,Keep Away.
Tabbed by Cavan, [email protected]

Tuning- c-g-c-f-a-d

Intro
D|-0--0-0--0-0--0-0-0-|
A|-5--5-5--5-5--5-5-5-|
F|--------------------|

Verse
C|-----------------------------------------|
G|-0-0-0-0--0-3-3-3--3-5-x-x--5-6-6--6-5-3-|
C|-0-0-0-0--0-3-3-3--3-5-x-x--5-6-6--6-5-3-|

Chorus
C|-9-9-9-9--7-7-7-7--2-2-2-2--5-5-5-5-|
G|-9-9-9-9--7-7-7-7--2-2-2-2--5-5-5-5-|
C|-9-9-9-9--7-7-7-7--2-2-2-2--5-5-5-5-|

Bridge (then)
G|-2-2-2-2--2-2-2-2-|-2-2-2--2-2--2-2-2-2-|
C|-2-2-2-2--2-2-2-2-|-2-2-2--2-2--2-2-2-2-|

Solo
D|-7~~~6^7~~~6^7~~~6^7-5-3-5-3-0-3-~/0-3-0---0---0-3/
A|---------------------------------------3---3---3---
F|---------------------------------------------------

-0---0---0---/12-10-12-15-12-10-12-~~14/15-15-15-15-
-3/5-3/5-3/5----------------------------------------
----------------------------------------------------

-15-15-15-15-14/15-15-15-15-15-15-15-15/-|
-----------------------------------------|
-----------------------------------------|

You might have to change a few notes in the
Solo to get it to sound right, it was kind of
Hard to hear all the notes.

:: Ultimate Guitar Archive ::
Http://www.ultimate-guitar.com

Log In to leave a comment

After registration we will return you to the same place
Comments
face-with-monocle
If you wait a bit, some comments may appear here...

Shhh...

Most Popular
You Might Like