Loading...
Glassjaw logo

Motel Of The White Locust Glassjaw

  • 0
  • Share
  • Transposing
    0
  • Font Size
Tuning: Dropp D
Tabber: Tom Lasala
Band: GlassJAw
Song: Motel of the White Locust
Album: Everything you Ever Wanted to Know About Silence

E|-----------3-3-3-3-3--------------3-3-3-3-3----------------------|
B|-----------3-3-3-3-3--------------3-3-3-3-3----------------------|
G|-----------1-1-1-1-1--------------1-1-1-1-1----------------------|
D|-----------------------------------------------------------------|
A|-0-0-0-0---------------0-0-0-0-------------------0-0-0-0---------|
D|-0-0-0-0---------------0-0-0-0-------------------0-0-0-0---------|

E|-----------3-3-3-3-3--------------3-3-3-3-3----------------------|
B|-----------3-3-3-3-3--------------3-3-3-3-3----------------------|
G|-----------1-1-1-1-1--------------1-1-1-1-1----------------------|
D|-----------------------------------------------------------------|
A|-0-0-0-0---------------0-0-0-0-------------------0-0-0-0---------|
D|-0-0-0-0---------------0-0-0-0-------------------0-0-0-0---------|

E|-----------3-3-3-3-3--------------3-3-3-3-3----------------------|
B|-----------3-3-3-3-3--------------3-3-3-3-3----------------------|
G|-----------1-1-1-1-1--------------1-1-1-1-1----------------------|
D|-----------------------------------------------------------------|
A|-0-0-0-0---------------0-0-0-0-------------------0-0-0-0---------|
D|-0-0-0-0---------------0-0-0-0-------------------0-0-0-0---------|

E|-----------3-3-3-3-3--------------3-3-3-3-3----------------------|
B|-----------3-3-3-3-3--------------3-3-3-3-3----------------------|
G|-----------1-1-1-1-1--------------1-1-1-1-1----------------------|
D|-----------------------------------------------------------------|
A|-0-0-0-0---------------0-0-0-0-------------------0-0-0-0---------|
D|-0-0-0-0---------------0-0-0-0-------------------0-0-0-0---------|

*This is the heavy screaming part (Welcome to..)*
E|-----------3-3-3-3-3--------------3-3-3-3-3----------------------|
B|-----------3-3-3-3-3--------------3-3-3-3-3----------------------|
G|-----------1-1-1-1-1--------------1-1-1-1-1----------------------|
D|-----------------------------------------------------------------|
A|-0-0-0-0---------------0-0-0-0-------------------0-0-0-0---------|
D|-0-0-0-0---------------0-0-0-0-------------------0-0-0-0---------|

E|-----------3-3-3-3-3--------------3-3-3-3-3----------------------|
B|-----------3-3-3-3-3--------------3-3-3-3-3----------------------|
G|-----------1-1-1-1-1--------------1-1-1-1-1----------------------|
D|-----------------------------------------------------------------|
A|-0-0-0-0---------------0-0-0-0-------------------0-0-0-0---------|
D|-0-0-0-0---------------0-0-0-0-------------------0-0-0-0---------|

E|-----------3-3-3-3-3--------------3-3-3-3-3----------------------|
B|-----------3-3-3-3-3--------------3-3-3-3-3----------------------|
G|-----------1-1-1-1-1--------------1-1-1-1-1----------------------|
D|-----------------------------------------------------------------|
A|-0-0-0-0---------------0-0-0-0-------------------0-0-0-0---------|
D|-0-0-0-0---------------0-0-0-0-------------------0-0-0-0---------|

*Just before the verse
E|-----------3-3-3-3-3--------------3-3-3-3-3----------------------|
B|-----------3-3-3-3-3--------------3-3-3-3-3----------------------|
G|-----------1-1-1-1-1--------------1-1-1-1-1----------------------|
D|-----------------------------------------------------------------|
A|-0-0-0-0---------------0-0-0-0-------------------0-0-0-0---------|
D|-0-0-0-0---------------0-0-0-0-------------------0-0-0-0---------|

*Palm Mute heavily(Combine the throbbin' in my head..)*
E|-----------------------------------------------------------------|
B|-----------------------------------------------------------------|
G|-----------------------------------------------------------------|
D|-----------------------------------------------------------------|
A|-----------------------------------------------------------------|
D|--3p0-0-0-0-0-0-3p0-0-0-0-0-0 3p0-0-0-0-0-0-3p0-0-0-0-0-0--------|

(Set a novena for all those lost..)
E|-----------------------------------------------------------------|
B|-----------------------------------------------------------------|
G|-----------------------------------------------------------------|
D|-----------------------------------------------------------------|
A|-----------------------------------------------------------------|
D|--3p0-0-0-0-0-0-3p0-0-0-0-0-0 3p0-0-0-0-0-0-3p0-0-0-0-0-0--------|

*Second guitar plays this at the end(The bloodstains on the sheets..)*
E|---------------------------|
B|---------------------------|
G|---------------------------|
D|----5---3------------------|
A|----5---3------------------|
D|----5---3------------------|

(I've whored myself for less than this..)
E|-----------------------------------------------------------------|
B|-----------------------------------------------------------------|
G|-----------------------------------------------------------------|
D|-----------------------------------------------------------------|
A|-----------------------------------------------------------------|
D|--3p0-0-0-0-0-0-3p0-0-0-0-0-0 3p0-0-0-0-0-0-3p0-0-0-0-0-0--------|

(And prayed..)
E|-----------------------------------------------------------------|
B|-----------------------------------------------------------------|
G|-----------------------------------------------------------------|
D|-----------------------------------------------------------------|
A|-----------------------------------------------------------------|
D|--3p0-0-0-0-0-0-3p0-0-0-0-0-0 3p0-0-0-0-0-0-3p0-0-0-0-0-0--------|

(Clench my fists and bang my head..)
E|---------------------------|
B|---------------------------|
G|---------------------------|
D|----5---3------------------|
A|----5---3------------------|
D|----5---3------------------|

*Play this part really heavy(Who could ever..?)*
E|---------------------------|
B|---------------------------|
G|---------------------------|
D|---0-0-0-0-----------------|
A|---0-0-0-0-----------------|
D|---0-0-0-0-----------------|

(Who the * could ever...?)
E|---------------------------|
B|---------------------------|
G|---------------------------|
D|---0-0-0-0-----------------|
A|---0-0-0-0-----------------|
D|---0-0-0-0-----------------|

(Take the place of me...)
E|---------------------------|
B|---------------------------|
G|---------------------------|
D|---0-0-0-0-----------------|
A|---0-0-0-0-----------------|
D|---0-0-0-0-----------------|

(Who could ever..?)
E|---------------------------|
B|---------------------------|
G|---------------------------|
D|---0-0-0-0-----------------|
A|---0-0-0-0-----------------|
D|---0-0-0-0-----------------|

(Who the * could ever...?)
E|---------------------------|
B|---------------------------|
G|---------------------------|
D|---0-0-0-0-----------------|
A|---0-0-0-0-----------------|
D|---0-0-0-0-----------------|

(Take the place of me...)
E|---------------------------|
B|---------------------------|
G|---------------------------|
D|---0-0-0-0-----------------|
A|---0-0-0-0-----------------|
D|---0-0-0-0-----------------|

(I've kissed up to God, my fists...)
E|-----------------------------------------------------------------|
B|-----------------------------------------------------------------|
G|-----------------------------------------------------------------|
D|-----------------------------------------------------------------|
A|-----------------------------------------------------------------|
D|--3p0-0-0-0-0-0-3p0-0-0-0-0-0 3p0-0-0-0-0-0-3p0-0-0-0-0-0--------|

(And prayed to keep my head..)
E|-----------------------------------------------------------------|
B|-----------------------------------------------------------------|
G|-----------------------------------------------------------------|
D|-----------------------------------------------------------------|
A|-----------------------------------------------------------------|
D|--3p0-0-0-0-0-0-3p0-0-0-0-0-0 3p0-0-0-0-0-0-3p0-0-0-0-0-0--------|

(And my fists all *in' red!...)
E|-----------------------------------------------------------------|
B|-----------------------------------------------------------------|
G|-----------------------------------------------------------------|
D|-----------------------------------------------------------------|
A|-----------------------------------------------------------------|
D|--3p0-0-0-0-0-0-3p0-0-0-0-0-0 3p0-0-0-0-0-0-3p0-0-0-0-0-0--------|

*Palm Mute heavily(Through sick and health..)*
E|-----------------------------------------------------------------|
B|-----------------------------------------------------------------|
G|-----------------------------------------------------------------|
D|-----------------------------------------------------------------|
A|-----------------------------------------------------------------|
D|--3p0-0-0-0-0-0-3p0-0-0-0-0-0 3p0-0-0-0-0-0-3p0-0-0-0-0-0--------|

(I've kissed up to god these years I've focused..)
E|-----------------------------------------------------------------|
B|-----------------------------------------------------------------|
G|-----------------------------------------------------------------|
D|-----------------------------------------------------------------|
A|-----------------------------------------------------------------|
D|--3p0-0-0-0-0-0-3p0-0-0-0-0-0 3p0-0-0-0-0-0-3p0-0-0-0-0-0--------|

*Second guitar plays this at the end(In the valley of the *in'
Locust!!..)*
E|---------------------------|
B|---------------------------|
G|---------------------------|
D|----5---3------------------|
A|----5---3------------------|
D|----5---3------------------|

*Play this part really heavy(Who could ever..?)*
E|---------------------------|
B|---------------------------|
G|---------------------------|
D|---0-0-0-0-----------------|
A|---0-0-0-0-----------------|
D|---0-0-0-0-----------------|

(Who the * could ever...?)
E|---------------------------|
B|---------------------------|
G|---------------------------|
D|---0-0-0-0-----------------|
A|---0-0-0-0-----------------|
D|---0-0-0-0-----------------|

(Take the place of me...)
E|---------------------------|
B|---------------------------|
G|---------------------------|
D|---0-0-0-0-----------------|
A|---0-0-0-0-----------------|
D|---0-0-0-0-----------------|

(Who could ever..?)
E|---------------------------|
B|---------------------------|
G|---------------------------|
D|---0-0-0-0-----------------|
A|---0-0-0-0-----------------|
D|---0-0-0-0-----------------|

(Who the * could ever...?)
E|---------------------------|
B|---------------------------|
G|---------------------------|
D|---0-0-0-0-----------------|
A|---0-0-0-0-----------------|
D|---0-0-0-0-----------------|

(Take the place of me...)
E|---------------------------|
B|---------------------------|
G|---------------------------|
D|---0-0-0-0-----------------|
A|---0-0-0-0-----------------|
D|---0-0-0-0-----------------|

Log In to leave a comment

After registration we will return you to the same place
Comments
face-with-monocle
If you wait a bit, some comments may appear here...

Shhh...

Most Popular
You Might Like