Loading...
Gipsy Kings logo

Moorea Gipsy Kings

  • 0
  • Share
  • Transposing
    0
  • Font Size
#----------------------------------PLEASE NOTE--------------------------------#
#This file is the author's own work and represents their interpretation of the#
#song. You may only use this file for private study, scholarship, or research.#
#-----------------------------------------------------------------------------#

Date: Fri, 20 Mar 1998 16:23:31 -0500
From: [email protected] (Boris Bjelosevic) (by way of cal woods)

MOOREA - Gipsy Kings

Gipsy Kings's instrumental 'Moorea' is my favorite, after 'Inspiration', of
Course.
So, I decided to write tabs for all of you.
Here we go...

SECTION A:
Am Am E
| | | | | | | | | | | | |
E-------8----10--8----10|----8-----8-10-----8---|-------7-----8--7----8-|
B------10----10-10----10|---10----10-10----10---|-------9-----9--9----9-|
G-------9-----9--9-----9|----9-----9--9-----9---|-------7-----7--7----7-|
D-----------------------|-----------------------|-----------------------|
A-----------------------|-----------------------|7----------------------|
E-----------------------|-----------------------|-----------------------|

E Gm Gm
| | | | | | | | | | | | |
E----7--------8----7----|-------6-----8--6----8-|----6--------8-----6---|
B----9--------9----9----|-------8-----8--8----8-|----8--------8-----8---|
G----7--------7----7----|-------7-----7-------7-|-------------7-----7---|
D-----------------------|-----------------------|-----------------------|
A-7---------------------|-----------------------|-----------------------|
E-----------------------|-----------------------|-----------------------|

D D D#
| | | | | | | | | | | | |
E-------5-----6--5-----6|----5--------6-----5---|-------6-----8--6----8-|
B-------7-----7--7-----7|----7--------7-----7---|-------8-----8--8----8-|
G-------5-----5--5-----5|----5--------5-----5---|-----------------------|
D-----------------------|-----------------------|-----------------------|
A-5---------------------|-----------------------|6----------------------|
E-----------------------|-----------------------|-----------------------|

D# Cm Cm
| | | | | | | | | | | | |
E----6--------8-----6---|-------8----10--8---10-|----8-------10-----8---|
B----8--------8-----8---|-------8-----8--8----8-|----8--------8-----8---|
G-----------------------|-------8-----8--8----8-|----8--------8-----8---|
D-----------------------|-----------------------|-----------------------|
A-----------------------|8----------------------|-----------------------|
E-----------------------|-----------------------|-----------------------|

F# F# D
| | | | | | | | | | | | |
E-------8----10--8----10|----8-------10-----8---|------10----11-10---11-|
B------10----10-10----10|---10-------10----10---|------10----10-10---10-|
G-------8-----8--8-----8|----8--------8-----8---|------11----11-11---11-|
D-----------------------|-----------------------|0----------------------|
A-9---------------------|-----------------------|-----------------------|
E-----------------------|-----------------------|-----------------------|

D
| | | | |
E---10-------11----10---||
B---10-------10----10---||
G---11-------11----11---||
D-----------------------||
A-----------------------||
E-----------------------||

SECTION B:
Am Am E
| | | | | | | | | | | | |
E12---------------------|-----------------------|12----12-------13-15---|
B---------------13-12-13_13-------------12-13-15|---------------------12_
G-----------------------|---14------------------|-----------------------|
D-----------------------|-----------------------|-----------------------|
A-----------------------|-----------------------|-----------------------|
E-----------------------|-----------------------|-----------------------|

E Gm Gm
| | | | | | | | | | | | |
E-----------------------|10----10---------------|-----------------------|
B12-12----109-----------|---------------11-10-11_11-------------10-11-13|
G------------10--9------|-----------------------|---12-11-12------------|
D-----------------------|-----------------------|-----------------------|
A-----------------------|-----------------------|-----------------------|
E-----------------------|-----------------------|-----------------------|

D D D#
| | | | | | | | | | | | |
E10----10-------11-13---|------------------------|-------------------------|
B---------------------10_10-10-------------11--10|11-10----10-11-13----1315|
G-----------------------|---------10-12-13---12--|------12-----------------|
D-----------------------|------------------------|-------------------------|
A-----------------------|------------------------|-------------------------|
E-----------------------|------------------------|-------------------------|

D# Cm Cm
| | | | | | | | | | | | |
E-----------------------|---------------------11_11-10----10------------|
B13-13----------11-13-10|11-10----10-11-13------|---------------13----11|
G-----------------------|------12---------------|-----------------------|
D-----------------------|-----------------------|-----------------------|
A-----------------------|-----------------------|-----------------------|
E-----------------------|-----------------------|-----------------------|

F# F# D
| | | | | | | | | | | | |
E-----------------------|--------------------------|-----------------------|
B11-10----11-10-11----11|---10-------11----11131113|10----10----10-------10_
G------12---------------|--------------------------|---------------11-12---|
D-----------------------|--------------------------|-----------------------|
A-----------------------|--------------------------|-----------------------|
E-----------------------|--------------------------|-----------------------|

D Am Am
| | | | | | | | | | | | |
E-----------------------|12----12---------------|-----------------------|
B10-10----10-11----13---|---------------13-12-13_13-------------12-13-15|
G-----------------------|-----------------------|---14-13-14------------|
D-----------------------|-----------------------|-----------------------|
A-----------------------|-----------------------|-----------------------|
E-----------------------|-----------------------|-----------------------|

E E Gm
| | | | | | | | | | | | |
E12-------12-13-12------|-----------------------|10----10---------------|
B------------------15-13|12----------------12---|---------------11-10-11_
G-----------------------|---------14-13-14------|-----------------------|
D-----------------------|-----------------------|-----------------------|
A-----------------------|-----------------------|-----------------------|
E-----------------------|-----------------------|-----------------------|

Gm D D
| | | | | | | | | | | |
|
E-----------------------|-------------101110---------|-----------------------|
B11---------------------|-------101113------13111013__13-------11-10----10-11_
G---12-------10---------|---1112---------------------|---------------12------|
D-----------------------|----------------------------|-----------------------|
A-----------------------|----------------------------|-----------------------|
E-----------------------|----------------------------|-----------------------|

D# D# Cm
| | | | | | | | | | | | |
E-----------------------|-----------------------|-----------------------|
B11-11----10----11------|---10------------------|-------------------8-10|
G---------------------12_12-------10----12----10|-8--7-----7--8---------|
D-----------------------|-----------------------|------10-------10------|
A-----------------------|-----------------------|-----------------------|
E-----------------------|-----------------------|-----------------------|

Cm F# F#
| | | | | | | | | | | | |
E----------8-----8-------|-----------------------|-----------------------|
B11-10------------11-8-11_11-10-----8-10-------11|---10-----------8-10--8|
G------------------------|-----------------------|-----------------------|
D------------------------|-----------------------|-----------------------|
A------------------------|-----------------------|-----------------------|
E------------------------|-----------------------|-----------------------|

D D
| | | | | | | | |
E-----------------------|-----------------------||
B-8--------7------------|-----------------------||
G-----------------------|-----------------------||
D-----------------------|-----------------------||
A-----------------------|-----------------------||
E-----------------------|-----------------------||

SECTION C:
Am Am E
| | | | | | | | | | | | |
E-0-----0---------------|---------------------3-|-5-----5-----4--5--7--0_
B----------------1--0--1__1--1-----------5--6---|-----------------------|
G-----------------------|-----------------------|-----------------------|
D-----------------------|-----------------------|-----------------------|
A-----------------------|-----------------------|-----------------------|
E-----------------------|-----------------------|-----------------------|

E Gm Gm
| | | | | | | | | | | | |
E-0--0--------0---------|-----------------------|-------------------6--5|
B----------3------------|-3-----3---------------|-----------------------|
G-----------------------|----------------3--2--3__3--3-----------7------|
D-----------------------|-----------------------|-----------------------|
A-----------------------|-----------------------|-----------------------|
E-----------------------|-----------------------|-----------------------|

D D D#
| | | | | | | | | | | | |
E-8--68-6--56-5---------|----------------------|-----------------------|
B----------------8------|------------------6888|-8--8--8--------6-----6_
G----------------------8|-7--8--7878-7--77-----|-------------------8---|
D-----------------------|----------------------|-----------------------|
A-----------------------|----------------------|-----------------------|
E-----------------------|----------------------|-----------------------|

D# Cm Cm
| | | | | | | | | | | | |
E-----------------------|-----------------------|-----------------------|
B_6---------------6--810|11----11-------10--8-10|---8-----------------8-|
G----8-----7--8---------|-----------------------|----10-8--8----8--10---|
D-----------------------|-----------------------|-----------------------|
A-----------------------|-----------------------|-----------------------|
E-----------------------|-----------------------|-----------------------|

F# F# D
| | | | | | | | | | | | |
E----------------8-10____10--------------8----8-|-----------------------|
B11-10--8-10-11---------|-----------------------|11----10----10--8-10-8-|
G-----------------------|-----------------------|-----------------------|
D-----------------------|-----------------------|-----------------------|
A-----------------------|-----------------------|-----------------------|
E-----------------------|-----------------------|-----------------------|

D Am Am
| | | | | | | | | | | | |
E----------------63-----|-----------------------|----------------7--8--7|
B----7--------7-----63-5__5-----5--------65----5__5---------------------|
G-----------------------|-------------------7---|-----------------------|
D-----------------------|-----------------------|-----------------------|
A-----------------------|-----------------------|-----------------------|
E-----------------------|-----------------------|-----------------------|

E E Gm
| | | | | | | | | | | | |
E10-10-----------8--8--8__8--7------------------|-----------------------|
B-----------------------|-----------------------|-------------------6--8|
G-----------------------|-----------------------|----7--8--5--7--8------|
D-----------------------|-----------------------|-----------------------|
A-----------------------|-----------------------|-----------------------|
E-----------------------|-----------------------|-----------------------|

Gm D D
| | | | | | | | | | | | |
E-5--6--5--8----6-----10|---------------10-11-10|13-11-10---------------|
B-----------------------|-----------------------|---------13-11-10-11-10|
G-----------------------|-----------------------|-----------------------|
D-----------------------|-----------------------|-----------------------|
A-----------------------|-----------------------|-----------------------|
E-----------------------|-----------------------|-----------------------|

D# D# Cm
| | | | | | | | | | | | |
E----------------8--8-810-8---------------------|----------8-10-10----10_
B11----11---------------|---11----11------------|---10-11-----8--8-----8_
G-----------------------|-----------------------|-------------8--8-----8_
D-----------------------|-----------------------|-----------------------|
A-----------------------|-----------------------|-----------------------|
E-----------------------|-----------------------|-----------------------|

Cm F# F#
| | | | | | | | | | | | |
E10--8------------------|---10-10-10-10-10----10|----8--------------------|
B-8--8----11-10-----8---|---10-10-10-10-10----10|---10----11-10----10111311
G-8--8------------------|----8--8--8--8--9-----8|----8--------------------|
D-----------------------|-----------------------|-------------------------|
A-----------------------|-9---------------------|-------------------------|
E-----------------------|-----------------------|-------------------------|

D D
| | | | | | | | |
E-----------------------|-----------------------||
B10----10----10-------10_10-10-------11----10---||
G---------------11-12---|-----------------------||
D-----------------------|-----------------------||
A-----------------------|-----------------------||
E-----------------------|-----------------------||

SECTION D:
Am Am E
| | | | | | | | | | | | |
E12----12---------------|-----------------------|12----12-------13-15---|
B---------------13-12-13_13-------------12-13-15|---------------------12_
G-----------------------|---14------------------|-----------------------|
D-----------------------|-----------------------|-----------------------|
A-----------------------|-----------------------|-----------------------|
E-----------------------|-----------------------|-----------------------|

E Gm Gm
| | | | | | | | | | | | |
E-----------------------|-----------------------|-----------------------|
B12-12----------12-13-15|15----15-------11-10-11_11-------------10-11-13|
G---------13-14---------|-----------------------|---12------------------|
D-----------------------|-----------------------|-----------------------|
A-----------------------|-----------------------|-----------------------|
E-----------------------|-----------------------|-----------------------|

D D D#
| | | | | | | | | | | | |
E10----------11-10------|-----------------------|------------------------|
B---11----10----------11|13-10----------10-11-13|131513-13-------11-11-11_
G-----------------------|---------11-12---------|------------------------|
D-----------------------|-----------------------|------------------------|
A-----------------------|-----------------------|------------------------|
E-----------------------|-----------------------|------------------------|

D# Cm
| | | | | | | | |
E-----------------------1011131110-------------------------|
B11-11------------101113---|------131110131110--1011131110-|
G---------------12---------|------------------12----------12
D--------------------------|-------------------------------|
A--------------------------|-------------------------------|
E--------------------------|-------------------------------|

Cm F# F#
| | | | | | | | | | | |
|
E----------------------------|-----------------------|-----------------------|
B----------------------------|-----------------------|-----------------------|
G10----101210----------------|-----------------------|-----------------------|
D--1213------1312121313_13____13-------12--12-10---10_10--------8--7--5--7--5|
A----------------------------|-----------------------|-----------------------|
E----------------------------|-----------------------|-----------------------|

D D Am
| | | | | | | | | | | | |
E---------------|-----------------------|-----------------------|
B---------------|----------------------3__3-------5-----------56|
G---------------|-------------2--3--5---|-----------------------|
D-4_______________4--0--4--5------------|-----------------------|
A---------------|-----------------------|-----------------------|
E---------------|-----------------------|-----------------------|

Am E E
| | | | | | | | | | | | |
E-----------------------|-------------------|-----------------------|
B-5--------------6--5--6__6--5________________5---------------------|
G-----------------------|-------------------|-----------------------|
D-----------------------|-------------------|-----------------------|
A-----------------------|-------------------|-----------------------|
E-----------------------|-------------------|-----------------------|

Gm Gm D
| | | | | | | | | | | | |
E-----------------------|----------------5--6--6__6--------------5-----5|
B-----------------------|----------7--8---------|-------------------8---|
G-7--87---7_______________7--7--8---------------|-----------------------|
D------10---------------|-----------------------|-----------------------|
A-----------------------|-----------------------|-----------------------|
E-----------------------|-----------------------|-----------------------|

D D# D#
| | | | | | | | | | | | |
E---------------|-------5--------6------|-8-------10------------|
B-7-------------|-----------------------|-----------------------|
G---------------|----7--------7--------7|-------7---------------|
D---------------|-----------------------|-----------------------|
A---------------|-----------------------|-----------------------|
E---------------|-----------------------|-----------------------|

Cm Cm F#
| | | | | | | | | | | | |
E-------------6-----8---|-8/10--10/15-----------|------------------------|
B-------8---------------|-----------------------|------10-11-131513-13-11_
G----7-----7-----7-----7|-----------------------|---12-------------------|
D-----------------------|-----------------------|------------------------|
A-----------------------|-----------------------|------------------------|
E-----------------------|-----------------------|------------------------|

F# D D
| | | | | | | | | | | | |
E-------------------------|-----------------------|-----------------------||
B11-10----------1311-10-11|10-11-10---------------|-----------------------||
G-------------------------|---------12-11-12-11--8|-7--8--7----7----------||
D-------------------------|-----------------------|---------10------------||
A-------------------------|-----------------------|-----------------------||
E-------------------------|-----------------------|-----------------------||

SECTION E:
Am Am E
| | | | | | | | | | | | |
E----0------------------|----0-----------4--5--7|-8-----7--------5------|
B-5-------------------56|-5--------5--6---------|----------------------6_
G-------------7---------|-----------------------|-----------------------|
D-----------------------|-----------------------|-----------------------|
A-----------------------|-----------------------|-----------------------|
E-----------------------|-----------------------|-----------------------|

E Gm Gm
| | | | | | | | | | | | |
E----0--------------0---|-----------------------|-----------------------|
B_5--------5--6--5------|-3--43-3-----------4--3__3--3--------4--3--3---|
G-----------------------|----------------5------|-----------------------|
D-----------------------|-----------------------|-----------------------|
A-----------------------|-----------------------|-----------------------|
E-----------------------|-----------------------|-----------------------|

D D D#
| | | | | | | | | | | | |
E----88-8--66-6--5--5---|-----------------------|-----------------------|
B----------------------8|-8--7-----7------------|----------6--8--6-----6_
G-----------------------|-----------------------|----7--8-----------8---|
D-----------------------|-----------------------|-----------------------|
A-----------------------|-----------------------|-----------------------|
E-----------------------|-----------------------|-----------------------|

D# Cm Cm
| | | | | | | | | | | | |
E-----------------------|-----------------------|-----------------------|
B_6---------------------|-----------------------|-----------------------|
G----8--7--8-----7--5--7__7--5-----5------------|-----------------------|
D-----------------------|-------8--------8--7--8__8--7--5--7-----5--4--5_
A-----------------------|-----------------------|-----------------------|
E-----------------------|-----------------------|-----------------------|

F# F# D
| | | | | | | | | | | | |
E-----------------------|-----------------------|-5--6--5---------------|
B-----------------------|----------------6--8--6|----------8--7---------|
G-----------------------|-------5--7--8---------|----------------------8|
D_5--3------------------|-----------------------|-----------------------|
A----------6-----5________5---------------------|-----------------------|
E-----------------------|-----------------------|-----------------------|

D Am Am
| | | | | | | | | | | | |
E-----------------------|12----12---------------|-----------------------|
B-----------------------|---------------13-12-13_13-------------12-13-13|
G-7---------------------|-----------------------|---14------------------|
D-----------------------|-----------------------|-----------------------|
A-----------------------|-----------------------|-----------------------|
E-----------------------|-----------------------|-----------------------|

E E Gm
| | | | | | | | | | | | |
E12----12-------13-15---|-----------------------|-----------------------|
B---------------------12_12-12----------12-13-15|15----15-------11-10-11_
G-----------------------|---------13-14---------|-----------------------|
D-----------------------|-----------------------|-----------------------|
A-----------------------|-----------------------|-----------------------|
E-----------------------|-----------------------|-----------------------|

Gm D D
| | | | | | | | | | | | |
E-----------------------|10-------10-11-10-------|-----------------------|
B11-------------10-11-13|------------------13-111312-10----------10-11-13|
G---12-11-12------------|------------------------|---------11-12---------|
D-----------------------|------------------------|-----------------------|
A-----------------------|------------------------|-----------------------|
E-----------------------|------------------------|-----------------------|

D# D# Cm
| | | | | | | | | | | | |
E10---------------------|-----------------------|-------------------------|
B------10-13----10----11|------------10-10-11-13|1315-13-11-13----10----11|
G-----------------------|---12----12------------|-------------------------|
D-----------------------|-----------------------|-------------------------|
A-----------------------|-----------------------|-------------------------|
E-----------------------|-----------------------|-------------------------|

Cm F# F#
| | | | | | | | | | | | |
E-----------------------|10-11-10---------------|-------------------------|
B---------------10-11-13|---------13_____________13----------------11131113
G---10----12------------|-----------------------|-------------------------|
D-----------------------|-----------------------|-------------------------|
A-----------------------|-----------------------|-------------------------|
E-----------------------|-----------------------|-------------------------|

D D
| | | | | | | | |
E-----------------------|-----------------------||
B10----10----10-------10_10-10-------11----10---||
G---------------11-12---|-----------------------||
D-----------------------|-----------------------||
A-----------------------|-----------------------||
E-----------------------|-----------------------||

Play like this:

A B A C A D A E A

--============_-1321693461==_============--

Log In to leave a comment

After registration we will return you to the same place
Comments
face-with-monocle
If you wait a bit, some comments may appear here...

Shhh...

Most Popular
You Might Like