Get Up Kids logo

Walking On A Wire Get Up Kids

  • 0
  • Share
  • Font Size
    15
Get Up Kids – Walking On A Wire
|---------------------------------------------|   Verse Part 1
|---------------------------0-0---0-0-2-2---2-|
|-------------4-2-2---2-2-4-----0---------2---|
|-0-1-2-2-0-2-------2-------------------------|

|----------------------------------------/4-4-4-| Verse Part 2
|---------------------------0-0---0-0-2-2-------|
|-------------4-2-2---2-2-4-----0---------------|
|-0-1-2-2-0-2-------2---------------------------|

|---------------------------------------|         Short Chorus
|-2-1-0-0-0-0-0-0-0-0-0-0-0-0-0-0-0-0-0-|
|---------------------------------------|
|---------------------------------------|

The longer chorus is basically the same thing except longer, I'm just
Too lazy to tab it out.

Walking On A Wire

I'm the one you've been hangin' around  Verse Part 1
Just stop hearing any sound
Found you face down on the ground
Found the friend never could be found   Verse part 2
I've been waiting around                Short Chorus
                      Verse Part 2
Systems failing now...         Short Chorus

On your honor so I hear                 Verse Part 1
It's never been your fault you swear
Is the union based on fear?
Tenement of tears...           Verse Part 2

I've been waiting              Extended Chorus
Systems failing
Walking on a wire on the ground...      Verse Part 2

(solo)                         Verse Part 2

Is this all your world tonight?         Verse Part 1
Is this all your world tonight?
I have to tell a lie
To avoid a brutal fight...              Verse Part 2

I've been waiting              Extended Chorus
Systems failing
Walking on a wire on the ground         Verse Part 2
On the ground...

Log In to leave a comment

After registration we will return you to the same place
Comments
face-with-monocle
If you wait a bit, some comments may appear here...

Shhh...