Genesis logo

Dusk Genesis

  • 3
  • Share
  • Transposing
    0
  • Font Size
    15
Genesis – Dusk
Intro.......2 Times.......

E|--0----------------0-|
B|--0--------------0---|
G|--8------------8-----|
D|--9----------9-------|
A|--9--------9---------|
E|--0------0-----------|

Verse**....

E|--0-------------------------0-|
B|--0----------------------0----|
G|--8--------------8-----8------|
D|--9--------9--------9---------|
A|--9------9----9---------------|
E|--7----7----------------------|

Chorus'**....

E|--0--0--7--0--7--0----0--0--9--0--9--0-|
B|--0--0--0--0--0--0----0--0--0--0--0--0-|
G|--6--6--6--6--6--6----8--8--8--8--8--8-|
D|--7--7--7--7--7--7----9--9--9--9--9--9-|
A|--7--7--7--7--7--7----9--9--9--9--9--9-|
E|---------------------------------------|

E|--0--0--7--0--7--0----0--0--9--0--9--0-|
B|--0--0--0--0--0--0----0--0--0--0--0--0-|
G|--6--6--6--6--6--6----8--8--8--8--8--8-|
D|--7--7--7--7--7--7----9--9--9--9--9--9-|
A|--7--7--7--7--7--7----9--9--9--9--9--9-|
E|---------------------------------------|

EM F*
E|--7--7--7--7--7---9--9--9--9--9--|
B|--8--8--8--8--8---11-11-11-11-11-|
G|--9--9--9--9--9---11-11-11-11-11-|
D|--9--9--9--9--9---11-11-11-11-11-|
A|--7--7--7--7--7---9--9--9--9--9--|
E|---------------------------------|

EM F*
E|--7--7--7--7--7---9--9--9--9--9--|
B|--8--8--8--8--8---11-11-11-11-11-|
G|--9--9--9--9--9---11-11-11-11-11-|
D|--9--9--9--9--9---11-11-11-11-11-|
A|--7--7--7--7--7---9--9--9--9--9--|
E|---------------------------------|

D E

E|--5--5--5--5--5-------------0-------------------0----------0-|
B|--7--7--7--7--7-----------0----0--------------0----------0---|
G|--7--7--7--7--7---------1---------1---------8----------8-----|
D|--7--7--7--7--7-------2-------------2-----9----------9-------|
A|--5--5--5--5--5-----2-------------------9----------9---------|
E|-------------------------------------------------------------|

Verse................

Chorus...............

Flute Solo.........

E|--7--7--7-10-9-7-7---7--7--7--7--7-7-7-|
B|--7--7--7-7--7-7-10--9--9--9--10-9-7-9-|
G|--7--7--7-7--7-7-7---7--7--7--7--7-7-7-|
D|--7--7--7-7----------9--9--9--9--9-9-9-|
A|--9--9--9------------7--7--7--7--7-7-7-|
E|--7--7--7------------7-----------------|

E|--7--7--7-10-9-7-7---7--7--7--7--7-7-7-|
B|--7--7--7-7--7-7-10--9--9--9--10-9-7-9-|
G|--7--7--7-7--7-7-7---7--7--7--7--7-7-7-|
D|--7--7--7-7----------9--9--9--9--9-9-9-|
A|--9--9--9------------7--7--7--7--7-7-7-|
E|--7--7--7------------7-----------------|

E|--0--0--0--7--0--7--0---0--0--0--3-2-0-0-|
B|--5--5--5--5--5--5--5---2--2--2--0-0-0-2-|
G|--6--6--6--6--6--6--6---3--3--3--0-0-0-0-|
D|--7--7--7--7--7--7--7---4--4--4--4-4-4-4-|
A|--0--------------------------------------|
E|-----------------------------------------|

E|----7--7-7-9-7-9-7---3--3-3-5-3-5-3----7--7-7-7-9-7-9-7-|
B|----7--7-7-7-7-7-7---3--3-3-3-3-3-3----7--7-7-7-7-7-7-7-|
G|----7--7-7-7-7-7-7---3--3-3-3-3-3-3----7--7-7-7-7-7-7-7-|
D|----7--7-7-7-7-7-7---3--3-3-3-3-3-3----7--7-7-7-7-7-7-7-|
A|----9--9-9-----------5-----------------9--9-------------|
E|--7----------------3-----------------7------------------|

E|------5----5-----5---------5------5-----5--------|
B|-------3-----3-----3---------3------3-----3------|
G|---------3-----3-----3---------3------3-----3----|
D|-------------------------------------------------|
A|--5---------------------5----------------------3-|
E|-------------------------------------------------|

E|-3------3------3---------3------3-----3------|
B|----3-----3-------3---------3-----3------3---|
G|------3------3------3---------3-----3------3-|
D|---------------------------------------------|
A|-----------------------3---------------------|
E|---------------------------------------------|

....Em.......B.....

E|-----------------0---|------------|
B|--------------0------|------------|
G|----------8----------| ETC.......-|
D|------9-----9--------|------------|
A|----9---9------------|------------|
E|--7------------------|------------|

Log In to leave a comment

After registration we will return you to the same place
Comments
face-with-monocle
If you wait a bit, some comments may appear here...

Shhh...