Garbage logo

Stupid Girl Garbage

  • 0
  • Share
  • Transposing
    0
  • Font Size
Garbage – Stupid Girl
INTRO:

(drums w/snd effects -Synth wind sounds w/odubbed gtr pick slides)

Rhythm Figure 1
F#5 B5 B5
/ / / /
E|----->----->----->----|->-----------|---------------------|-------------|
B|-----5-----5-----5----|-4-----------|----5-----5-----5----|-4-----------|
G|----6-----6-----6----|-4-----------|----6-----6-----6----|-4----------*|
D|-4-----4-----4-----4-|-------------|-4-----4-----4-----4-|------------*|
A|----------------------|-------------|---------------------|-------------|
E|----------------------|-------------|---------------------|-------------|

(F#) (B) (F#) (B) (F#)
| You pretend | you're high | Pretend you're | bored | Pretend you're |

(B) (F#) (B) (F#) (B)
(w/snd effects)
| anything | Just to be adored | And what you | need | Is what you get |

SEGNA
Pre-Chorus =20
F#5 (fade in) B5 D#m G#m7 =20
/ / / / =AB_ =AB_=20
(w/chorus) Synth 2 (tab) ) ( ) (
E-------------|------------/6-||--------------|-----6---(6)---(6)---|
B-------------|------------\\7-||--------------|---------------------| Gtr 2
G-------------|------------/8-||--------------|---------------------| bends
D-------------|------------\\8-||--------------|---------------------| cont==20
A-------------|------------/6-||--------------|---------------------| in next
E-------------|---------------||--------------|---------------------| bar
1.Dont believe in fear
2.Dont believe in love
3.Dont believe in fear

D#m G#m7 D#m G#m7
/ =AB_ / =AB_ =AB_ / /
) ( ) ( ) (
E-(6)---(6)---------|------6---(6)---(6)--|(6)------------|-------6---6---|
B-------------------|---------------------|---------------|---------------|
G-------------------|---------------------|---------------|---------------|
D-------------------|---------------------|---------------|---------------|
A-------------------|---------------------|---------------|---------------|
E-------------------|---------------------|---------------|---------------|
Dont believe in faith Dont believe in anything
Dont believe in hate Dont believe in anything
Dont believe in pain Dont believe in anyone

Chorus
Rhythm Fig 2--------------|
Gtr.3 (slashes) (w/dist)
D#m Bvii F#5ii =20
/ / / Gtr.4(tab-w/dist)
=AB(slow)
E-6-------------|-7------------||-9-----------|-------)-----|
B---------------|--------------||-------------|------4------|
G---------------|-4------------||-9-----------|-------------|
D---------------|--------------||-------------|-------------|
A---------------|--------------||-9-----------|-------------|
E---------------|--------------||-------------|-------------|
That you cant break You stupid girl
But you cant waste
That you cant tame

F#5ii
Play Rhy.Fig 2 -x3
Riff A----------------------------|
=AB(slow) =AB(slo=
W)
E-----------------|---------)-------|------------------|----------)------|
B-----------------|--------4--------|------------------|---------4-------|
G-.---------------|-----------------|-.----------------|-----------------|
D->---------------|-----------------|->----------------|-----------------|
A-4---------------|-----------------|-4----------------|-----------------|
E-2---------------|-----------------|-2----------------|-----------------|
You stupid girl {1,3. All you had you wasted
{ 2. Cant believe you fake it
(2nd time) To Coda I
(3rd time) To Coda II
=AB(slow)
E----------------------|-------------)-----------||
B----------------------|------------4------------||
G-.--------------------|-------------------------||
D->--------------------|-------------------------||
A-4--------------------|-------------------------||
E-2--------------------|-------------------------||
All you had you wasted
Cant believe you fake it

F#5ii
/
Play Rhy.Fig 2 -x3
Gtr1 Play 4 times
|e-|------------------------|----------------------|
|b-|-------5-----5-----5----|-4--------------------|
|g-|------6-----6-----6----|-4-------------------*|
|d-|---4-----4-----4-----4-|---------------------*|
|a-|------------------------|----------------------|
|e-|------------------------|----------------------|
| |
| Fill 1----------------------------------------||
|Gtr5 N.H. w/bar |
|e-|------------------------|----------------------|
|b-|------------------------|----------------------|
|g-|-----------------------|----4-------(4)\\\\\\---*|
|d-|-----------------------|----4-------(4)\\\\\\---*|
|a-|-------4--4--------4--4-|----------------------|
|e-|-------2--2--------2--2-|----------------------|

(F#) (B) (F#)
| What drives you | on (drives you on) | Can drive you mad |

(B) (F#) (B)
| (drive you mad) A | million lies to sell | yourself |
=20
(F#)
| Is all you ever had |

(B) D#m
Gtr2
E-----------------\\6--|| Del Segna al Coda I
B-----------------/7--|| (Go back to the segna,
G-----------------\\8--|| and play till it=20
D-----------------/8--|| tells you to go to=20
A-----------------\\6--|| Coda I)
E---------------------||

Coda I Rhy.Fig 1 -x4
Rhy.Fig 2 -x4
Fill 1 -x4
Synth Piano (Tab) Riff B----------------------------------|
Fill 4--------------------| Play 4 times
E----------------9-----7--6-|--(6)---------5---|----------9-----7--6--|
B-------------------7-------|-------7----------|-------------7--------|
G---------------------------|*-----------------|---------------------*|
D---------------------------|*-----------------|---------------------*|
A---------------------------|------------------|----------------------|
E---------------------------|------------------|----------------------|
| =AB(slow)|
Only to be |---------------)------|
Played on the |--------------4-------|
Last repeat. |----------------------|
|----------------------|
|----------------------|
|----------------------|
Interlude
F#5ii
/
Riff A -x4
Fill 1 -x4 Del Segna al Coda II
Riff B -3=AB ___________________ __________________
Gtr6 (w/hvy dist) |1,2,3. |4. Gtr2
E-|----------------------------|-------------------|--------------\\6--||
B-|---------=AC-------------x--|-------------------|--------------/7--||
G-|--------)-------------x----|------------------*|--------------\\8--||
D-|-------2----4---------x----|--=AB(slow)-------*|--=AB(slow)---/8--||
A-|-----4--------------)-------|--)----------------|--)-----------\\6--||
E-|----------------2--4------2h|h4-----------------|h4----------------||

Coda II F#5ii
Fill 4 -x8 Rhy.Fig 2 -x8
=AB(slow) / =AB(slow)
E-----------)------|----------------|------------)------|
B----------4-------|----------------|-----------4-------|
G------------------|-.--------------|-------------------|
D------------------|->--------------|-------------------|
A------------------|-4--------------|-------------------|
E------------------|-2--------------|-------------------|
You stupid girl
=20
/ =AB(slow) / =AB(sl=
Ow)
E-----------------|----------)------|----------------------|-------)------|
B-----------------|---------4-------|----------------------|------4-------|
G-.---------------|-----------------|-.--------------------|--------------|
D->---------------|-----------------|->--------------------|--------------|
A-4---------------|-----------------|-4--------------------|--------------|
E-2---------------|-----------------|-2--------------------|--------------|
You stupid girl Cant believe you fake it

Fill 1 -7=AB
Rhy.Fig 1 -x4
/ =AB(slow) /
E--------------------|---------)------|--------------------|
B--------------------|--------4-------|--------------------|
G-.------------------|----------------|-.------------------|
D->------------------|----------------|->------------------|
A-4------------------|----------------|-4------------------|
E-2------------------|----------------|-2------------------|
I cant believe you fake it You stupid girl

=AB(slow) =AB(slow)
E----------)------|---------------|-----------)------|-----------------|
B---------4-------|---------------|----------4-------|-----------------|
G-----------------|-.-------------|------------------|-.---------------|
D-----------------|->-------------|------------------|->---------------|
A-----------------|-4-------------|------------------|-4---------------|
E-----------------|-2-------------|------------------|-2---------------|
You stupid girl I cant believe you=20

=AB(slow) =AB(slow)
E---------)------|--------------------|----------)------|
B--------4-------|--------------------|---------4-------|
G----------------|-.------------------|-----------------|
D----------------|->------------------|-----------------|
A----------------|-4------------------|-----------------|
E----------------|-2------------------|-----------------|
Fake it I cant believe you fake it

_______________ ______
Outro |1,2,3. |4 =AB(slow) (all gtr's)
|e-|--------------------------|--------------||---)-(--------|-----------|
|b-|---------=AC-----------x--|--------------||---)--(-------|-.--------=|
|g-|--------)-----------x----|-------------*||---)---(------|->---------|
|d-|-------2---4--------x----|--=AB(slow)--*||---)----(-----|-4--------=|
|a-|-----4-------------)------|--)-----------||---)-----(----|-4---------|
|e-|---------------2--4-----2h|h4------------||-h4-------(4)-|-2---------|
| |
| Gtr7 pick slide---------------------------------------------------||
|e-|--------------------------|--------------||--------------|-----------|
|b-|--------------------------|--------------||--------------|-----------|
|g-|-------x\\----------------|-(\\----------*||-----x\\-------|-(\\--------|
|d-|-------x\\\\---------------|-(\\\\-)-------*||-----x\\\\------|-(\\\\-)-----|
|a-|--------x\\\\\\--------------|-(\\\\\\)--------||-----x\\\\\\-----|-(\\\\\\)-----|
|e-|----------\\\\--------------|---\\\\)--------||-------\\\\-----|---\\\\)-----|
You stupid girl. =20

Notes:

All Synth parts possible are arr for guitar.
Synth Rhythm arr for guitar in slashes -Synth 1
Lead Guitar in TAB -Gtr1 (clean) - unless o/wise noted.

Chords:

F#5 xx46xx
B5 xx44xx
D#m x6887x
G#m7 4x687x (no 3rd)
Bvii x9987x
F#5ii 24xxxx

Log In to leave a comment

After registration we will return you to the same place
Comments
face-with-monocle
If you wait a bit, some comments may appear here...

Shhh...