Gândul Mâţei logo

Hostropat Gândul Mâţei

  • 0
  • Share
  • Transposing
    0
  • Font Size
Gândul Mâţei – Hostropat
Solo:
E
"op-paaa..."
1---------------10/12-12-12-10-10-8/10-8-7-5-5--4/5/7-5--
2-8-7/8-(5)-4/5------------------------------------------

1-------------10-10-10-8-7/8-5-7-7--5/7/8--7---
2-7-5/7-3-2/3----------------------------------

1-------------12-12-12-10-8/10-8--55-5/77-7/88--
2-8-7/8-5-4/5-----------------------------------

1-10-7/8-7-5-7-5-7-5/7-----------------------
2----------------------8-7/8-7-5-~~~-4-5-7-5-

1-5-7-15-15-15-15-12-11-12-12/14~~~~~~~
2--------------------------------------

1-5-7-14-14-14-14-12-11/12/11-8-7-12-7-12-7~~~~
2----------------------------------------------

1-7-12-12----12-12-12-10-8/10-7--5-88---8-10-8/10-8-7-5-
2-------------------------------------------------------

1----------------7-5/7-5-------------------
2-8-7/8-(5)-4/5----------8-7-5--4-5-5/7--5-

Log In to leave a comment

After registration we will return you to the same place
Comments
face-with-monocle
If you wait a bit, some comments may appear here...

Shhh...