Funeral For A Friend logo

1045 Amsterdam Conversations Funeral For A Friend

  • 0
  • Share
  • Font Size
Funeral For A Friend – 1045 Amsterdam Conversations
Funeral For A Friend - 10:45 Amsterdam Conversations
Album:Seven Ways To Scream Your Name
Tabbed by Kyle Gayne

Intro(bass enters at 0:09)
G:------------------------------------------------------------------|
D:------------------------------------------------------------------|
A:-444-444-444-444------------------44--44--44--44------------------|x2
E:------------------00--00--22--22------------------00--00--22--22--|

G:----------------------------------|
D:-7~~~~~~~--------7-----7-----7----|
A:--------------------7-----7----7--|x1
E:----------------------------------|

Verse
G:-------------------------------------|
D:-------------------------------------|
A:-2h4444444444444442h4442h44444444444-|x4
E:-------------------------------------|

Pre Chorus
G:-----4-------4-4-----4-------4-4--|
D:-2222--222222-2--2222--222222-2---|
A:----------------------------------|x4
E:----------------------------------|

Chorus 1
G:------------------------------------------------------------------|
D:------------------------------------------------------------------|
A:-444-444-444-444------------------44--44--44--44------------------|x2
E:------------------00--00--22--22------------------00--00--22--22--|

G:----------------------------------|
D:-7~~~~~~~--------7-----7-----7----|
A:--------------------7-----7----7--|x1
E:----------------------------------|

Repeat:
Verse
Pre Chorus

Chorus 2
G:------------------------------------------------------------------|
D:------------------------------------------------------------------|
A:-444-444-444-444------------------44--44--44--44------------------|x2
E:------------------00--00--22--22------------------00--00--22--22--|

G:------------------------------------------------------------------|
D:-7~~~~~~~--------7-----7-----7---7~~~~~~~--------7-----7-----7----|
A:--------------------7-----7----7--------------------7-----7----7--|x1
E:------------------------------------------------------------------|

Bridge
G:----------------------------------|
D:----------------------------------|
A:----------------------------------|x4
E:-0~~~~~~~~~~~---------------------|

Outro
G:---------1-112-224-4444442-224-44-|
D:-2-224-44-------------------------|
A:----------------------------------|x8
E:----------------------------------|

G:------------------------------------------------------------------|
D:-2~~~~~~~~~~~~~~~~~~~~~~~~~~~~~~~---------------------------------|
A:------------------------------------------------------------------|x1
E:------------------------------------------------------------------|

Log In to leave a comment

After registration we will return you to the same place
Comments
face-with-monocle
If you wait a bit, some comments may appear here...

Shhh...