Loading...
Fuel logo

Sunburn Fuel

  • 0
  • Share
  • Font Size
Fuel – Sunburn
Fuel, sunburn.
Tabbed by alex, [email protected]

Artist: Fuel
Song: Sunburn
Album: Sunburn

Hey everyone i noticed that there weren't any tabs for this song anywhere and when i finally found one, it sucked. this tab is 99.9% accurate, and this song kicks ass. i spent alot of time working it out. it's in good 'ol standard tuning.

Standard tab symbols, except that instead of scraping, x means just put your right palm on the strings to stop the sound. fuel does this alot, but you can scrape if you want.

Intro-clean, with a vibrato/chorus effect
E---0------x-0----------------------------------0-x--0---------
B---3--3---x-2-----2----3------2---------3-3-3---x--2----------
G---0---0--x-0-----------0-------0-------0------- x--0----------
D---2------x-2-------/4---4--2-----2-----2-------x--2---------
A---2------x-0---0-----------------------2------- x--0----------
E-0--------x-------------------------0------------x-----------

Verse
E---0------x-0----------------------------------0-x--0-------------------------
B---3--3---x-2-----2----3------2---------3-3-3---x--2----2------3------2-----
G---0---0--x-0-----------0-------0-------0------- x--0-------------0------0---
D---2------x-2-------/4---4--2-----2-----2-------x--2-------2-/4---4--2---2--
A---2------x-0---0-----------------------2------- x--0--0----------------------
E-0--------x-------------------------0------------x------------------------------

Prechorus-it sounds like the vibrato effect might be gone here, i dont know
dist.
E--------------------------------------------------------------------------
B-------------0--------------0----------------------------------------------
G-----0------0------0-------0-----0---------------------------------------
D----------------------------------------5-5-5-5-5-5-5-7--7-7-7-7-7----
A-3h5--5p3-3----3h5--5p3-3----3h5-5p3--3-3-3-3-3-3-3-5--5-5-5-5-5-----
E--------------------------------------------------------------------------
p.m................
Chorus
E-0-0-x-3-x-0--0--0----0--0-x-3-x-0--0--0-------------
B-0-0-x-3-x-3---3--3---1--1-x-3-x-3---3--3------------
G-0-0-x-0-x-2----2--2--2--2-x-0-x-2----2--2-----------
D-2-2-x-2-x-0--------0-2--2-x-2-x-0--------0---------
A-2-2-x-3-x------------0--0-x-3-x---------------------
E-0-0-x---x------------------x---x--------------------------
clean
E-0-0-x-3-x-0--0--0-------------------------------------------------------
B-0-0-x-3-x-3---3--3---------------0-------------0----------------0-------
G-0-0-x-0-x-2----2--------0-------0------0------0-------0-------0--------
D-2-2-x-2-x-0-------------------------------------------------------------
A-2-2-x-3-x-----------3h5--5p3-3-----3h5--5p3-3----3h5--5p3-3----------------
E-0-0-x---x-------------------------------------------------------------------

Second chorus
E-0-0-x-3-x-0--0--0----0--0-x-3-x-0--0--0-------------
B-0-0-x-3-x-3---3--3---1--1-x-3-x-3---3--3------------
G-0-0-x-0-x-2----2--2--2--2-x-0-x-2----2--2-----------
D-2-2-x-2-x-0--------0-2--2-x-2-x-0--------0---------
A-2-2-x-3-x------------0--0-x-3-x---------------------
E-0-0-x---x------------------x---x--------------------------
stays distorted here
E-0-0-x-3-x-0--0--0-------------------------------------------------------
B-0-0-x-3-x-3---3--3---------------0-------------0-----------------------
G-0-0-x-0-x-2----2--------0-------0------0------0-------0---------------
D-2-2-x-2-x-0---------------------------------------------------5-5-5-5-5-7--7-7-
A-2-2-x-3-x-----------3h5--5p3-3----3h5--5p3-3----3h5--5p3-3--3-3-3-3-3-5--5-5-
E-0-0-x---x-------------------------------------------------------------------

Interlude
E-0--0-0-0-0-0-0--0--0--0-0-0-0---
B-1--1-1-1-1-1-1--0--0--0-0-0-0---
G-2--2-2-2-2-2-2--0--0--0-0-0-0---
D-2--2-2-2-2-2-2--2--2--2-2-2-2---
A-0--0-0-0-0-0-2--2--2--2-2-2-2---
E------------------0--0--0-0-0-0---3x then

E-3--3-3-3-3-3-0--0--0---0-0-0-2---
B-3--3-3-3-3-3-3--3--3---3-3-3-3---
G-0--0-0-0-0-0-2--2--2---2-2-2-2---
D-2--2-2-2-2-2-0--0--0---0-0-0-0---
A-3--3-3-3-3-3----------------------
E------------------------------------

Very cool solo, didn't tab it out because i think it's funner to improvise it instead. good luck with this song, have fun.
PLEASE PLEASE if you know how to play Last Time also by fuel on the new album, something like human, i'd really really appreciate it if you could email the tab to me so i can get our wonderful *cough* bass player to learn it since he won't play anything i tab out for him. my email is [email protected]
Thanks

:: Ultimate Guitar Archive ::
Http://www.ultimate-guitar.com

Log In to leave a comment

After registration we will return you to the same place
Comments
face-with-monocle
If you wait a bit, some comments may appear here...

Shhh...

Most Popular
You Might Like