Frusciante John logo

Time Goes Back Frusciante John

  • 0
  • Share
  • Transposing
    0
  • Font Size
Frusciante John – Time Goes Back
John Frusciante
Time goes back
Shadows collide with people
Standard tuning(EADGBE)
By Stephen Mc Carthy

Verse And intro
G D Am C
|-3-3-3-3--2-2-2-2--0-0-0-0--0-0-0-0-|
|-3-3-3-3--3-3-3-3--1-1-1-1--1-1-1-1-|
|-4-4-4-4--2-2-2-2--2-2-2-2--0-0-0-0-|
|-5-5-5-5--x-x-x-x--2-2-2-2--2-2-2-2-|
|-5-5-5-5-----------0-0-0-0--3-3-3-3-|
|-3-3-3-3-----------x-x-x-x--x-x-x-x-|

Intro end
G D Am C
|-3-3-3-3--2-2-2-3--5-5-5-5--8-8-8-8-|
|-3-3-3-3--3-3-3-3--5-5-5-5--8-8-8-8-|
|-4-4-4-4--2-2-2-2--5-5-5-5--9-9-9-9-|
|-5-5-5-5--x-x-x-x--7-7-7-7----------|
|-5-5-5-5-----------7-7-7-7----------|
|-3-3-3-3-----------5-5-5-5----------|

Bridge (I notice that your fine..)
Am C
|-0-0-0-0--0-0-0-0-|
|-1-1-1-1--1-1-1-1-|
|-2-2-2-2--0-0-0-0-|
|-2-2-2-2--2-2-2-2-|
|-0-0-0-0--3-3-3-3-|
|-x-x-x-x--x-x-x-x-|

Solo 1:
G D Am
|----------3-------------------5--------------------5---5---5---|
|------------3---------------7---7----------------5---5---5-----|
|-------4------4---4-------7-------7---7------------------------|
|-----5----------5-------7-----------7--------7-----------------|
|---5------------------5--------------------7-------------------|
|-3---------------------------------------5---------------------|

C
|--------------8--------8---|
|---------------------------|
|---------8----------8----8-|
|------10---------10--------|x2
|---10----------------------|
|-8-------------------------|

Jump in the mind of a passer by...
|----------------------------|
|----------------------------|
|----------------------------|
|-12-------17------14-----10-|
|----------------------------|
|----------------------------|

Outro (with delay)
|-19---15-17-15---21b22--17----14-15-15bd14--12---14-15-14----12--10|
|-------------------------------------------------------------------|
|-------------------------------------------------------------------|
|-------------------------------------------------------------------|
|-------------------------------------------------------------------|
|-------------------------------------------------------------------|

|-12-14-15--15--15b17-14--12-14-10-----5--7--5--3-|
|-------------------------------------------------|
|-------------------------------------------------|
|-------------------------------------------------|
|-------------------------------------------------|
|-------------------------------------------------|

G D Am
|----------3-------------------5--------------------5---5---5---|
|------------3---------------7---7----------------5---5---5-----|
|-------4------4---4-------7-------7---7------------------------|
|-----5----------5-------7-----------7--------7-----------------|
|---5------------------5--------------------7-------------------|
|-3---------------------------------------5---------------------|

C
|--------------8--------8---|
|---------------------------|
|---------8----------8----8-|
|------10---------10--------|x2
|---10----------------------|
|-8-------------------------|

Log In to leave a comment

After registration we will return you to the same place
Comments
face-with-monocle
If you wait a bit, some comments may appear here...

Shhh...

Most Popular
You Might Like