Flёur logo

Ты не можешь мне запретить Flёur

  • 2
  • Share
  • Transposing
    0
  • Font Size
Flёur – Ты не можешь мне запретить
Intro (Bridge):
Am
--------------------------|--------------------------|
--------1--0--1-----------|--------1--0--1-----------|
-----------------2-----2--|-----------------2-----2--|
-----2--------------2-----|-----2--------------2-----|
--0-----------------------|--0-----------------------|
--------------------------|--------------------------|

Em
--------------------------|--------------------------|
--------0-----0-----------|--------0-----0-----------|
-----------2-----0-----0--|-----------2-----0-----0--|
--------------------2-----|--------------------2-----|
-----2--------------------|-----2--------------------|
--0-----------------------|--0-----------------------|

Am
--------------------------|--------------------------|
--------1--0--1-----------|--------1--0--1-----------|
-----------------2-----2--|-----------------2-----2--|
-----2--------------2-----|-----2--------------2-----|
--0-----------------------|--0-----------------------|
--------------------------|--------------------------|

Em
--------------------------|--------------------------|
--------0-----0-----------|--------0-----0-----------|
-----------2-----0-----0--|-----------2-----0-----0--|
--------------------2-----|--------------------2-----|
-----2--------------------|-----2--------------------|
--0-----------------------|--0-----------------------|

G
--------------------------|--------------------------|
--------0-----0-----------|--------0-----0-----------|
-----------0-----0-----0--|-----------0-----0-----0--|
--------------------0-----|--------------------0-----|
-----2--------------------|-----2--------------------|
--3-----------------------|--3-----------------------|

Bm
--------------------------|--------------------------|
--------3-----3-----------|--------3-----3-----------|
-----------4-----4-----4--|-----------4-----4-----4--|
-----4--------------4-----|-----4--------------4-----|
--2-----------------------|--2-----------------------|
--------------------------|--------------------------|

G
--------------------------|--------------------------|
--------0-----0-----------|--------0-----0-----------|
-----------0-----0-----0--|-----------0-----0-----0--|
--------------------0-----|--------------------0-----|
-----2--------------------|-----2--------------------|
--3-----------------------|--3-----------------------|

D
--------2--0--2-----------|--------2--0--2-----------||
-----------------3-----3--|-----------------3-----3--||
-----2--------------2-----|-----2--------------2-----||
--0-----------------------|--0-----------------------||
--------------------------|--------------------------||
--------------------------|--------------------------||

Am Em Am D Am
Мне холодно от мысли, как безмятежен дремлющий мир
G D
В своём замедленном падении
Ты нереально близко, и я вдыхаю тебя, как эфир
С мечтой о полном погружении

Am D Am
И ты не можешь мне запретить
Em C Em C Em E
Струится звёздный шлейф бесследно тающих мгновений
Am D Am
Ты не можешь мне запретить
F#m D B F#m
Ещё короткий вдох и, может быть, последний

Разбит аквариум, и золотые рыбки
Лежат внизу среди осколков
Дрожат созвездия из ртутных шариков
И нам осталось ждать совсем недолго

И ты не можешь мне запретить
За окнами метель, летят бесценные мгновения
Ты не можешь мне запретить
Короткий миг любви - он, может быть, последний

Безвольные, больные, поникшие цветы
Гибнут на оледеневшем окне
Предчувствуя паденье ещё одной звезды
Я прикасаюсь к тебе во сне

И ты не можешь мне запретить
Когда над спящим миром бушуют вихри разрушений
Ты не можешь мне запретить
Ведь каждый миг любви - он, может быть, последний

Log In to leave a comment

After registration we will return you to the same place
Comments
face-with-monocle
If you wait a bit, some comments may appear here...

Shhh...