Five Finger Death Punch logo

Will The Sun Ever Rise Five Finger Death Punch

  • 1
  • Share
  • Transposing
    0
  • Font Size
    15
Five Finger Death Punch – Will The Sun Ever Rise
Intro:
   Em       C        G         D        Em       C         D         D
1)---------------------------------0--------------------------0-2-2--3-2-0---
2)-----5---------3-5------5----------3------5--------3-5---0---------------3-
3)---4---4-----------------------2--------4---4------------------------------
4)-2----------5--------5----5--0--------2----------5-----------------0-------
5)----------3------------------------------------3---------------------------
6)-------------------3-------------------------------------3-----------------

Verse:
       Em                      C
I take one step forward, and two steps back
     G                           D
It's always been like that, it shouldn't be like that
      Em           C
I'm trying to overcome myself
   G             D
Trying to work around this hell

 Em                       C
Two steps forward, and three steps back
  G                      D
Why is life like that? Why am I like that?
     Em              C
I'm trying to understand myself
  G                D
Trying to fight through this hell

Pre-Chorus:
C    D       Em        G
Why can't I see this clearly
C    C
Why can't I

Chorus:
Am                   Am
Hey hey you, are you living the dream
 G                    G
Seen what I've seen, nothing is clean
 F                      F
Hey hey you, while I'm rolling the dice
     Em                          G
I'm paying the price, I've been walking on ice
Am                    Am
Hey hey you, just get outta my way
       G                           G
At the end of the day, you've got nothing to say
 F                    F
Hey hey you, see the look in my eyes
          Em                      G
Will the sun ever rise, will the sun ever rise?

   Em       C        G        D        Em       C         D         D
1)--------------------------------0--------------------------0-2-2--3-2-0---
2)-----5---------3-5-----5----------3------5--------3-5---0---------------3-
3)---4---4----------------------2--------4---4------------------------------
4)-2----------5--------5---5--0--------2----------5-----------------0-------
5)----------3-----------------------------------3---------------------------
6)-------------------3------------------------------------3-----------------
                            (Will the sun ever rise again)

Verse:
         Em                 C
All the days gone by and I can't get em back
  G                     D
What was my name now, what is my name now?
  Em             C
Tryin' to rise above myself
  G               D
Tryin' to look beyond this hell
 Em               C
Seems like I got way off track
 G                     D
No one ever found me, no one unbound me
   Em           C
I wonder why I hate myself
    G            D
Surrounded by a living hell

Pre-Chorus:
C    D       Em        G
Why can't I see this clearly
C    C
Why can't I

Chorus:
Am                   Am
Hey hey you, are you living the dream
 G                    G
Seen what I've seen, nothing is clean
 F                      F
Hey hey you, while I'm rolling the dice
     Em                          G
I'm paying the price, I've been walking on ice
Am                    Am
Hey hey you, just get outta my way
       G                           G
At the end of the day, you've got nothing to say
 F                    F
Hey hey you, see the look in my eyes
          Em                      G
Will the sun ever rise, will the sun ever rise?
Em         C            D         Am
(Will the sun ever rise? Will the sun ever rise?)
Em         C            D         Am
(Will the sun ever rise? Will the sun ever rise?)

Bridge: Em C D Am }x4

Chorus:
Am                   Am
Hey hey you, are you living the dream
 G                    G
Seen what I've seen, nothing is clean
 F                      F
Hey hey you, while I'm rolling the dice
     Em                          G
I'm paying the price, I've been walking on ice
Am                    Am
Hey hey you, just get outta my way
       G                           G
At the end of the day, you've got nothing to say
 F                    F
Hey hey you, see the look in my eyes
          Em                      G
Will the sun ever rise, will the sun ever rise?

Em        C            D         Am
Will the sun ever rise? Will the sun ever rise?
Em          C            D         Am             Em C D Am Em C D Am
Will the sun ever rise? Will the sun ever rise? No!

Outro:
   Em       C        G        D        Em       C         D         D
1)--------------------------------0--------------------------0-2-2--3-2-0---
2)-----5---------3-5-----5----------3------5--------3-5---0---------------3-
3)---4---4----------------------2--------4---4------------------------------
4)-2----------5--------5---5--0--------2----------5-----------------0-------
5)----------3-----------------------------------3---------------------------
6)-------------------3------------------------------------3-----------------

Log In to leave a comment

After registration we will return you to the same place
Comments
face-with-monocle
If you wait a bit, some comments may appear here...

Shhh...