Fila Vitae logo

Гроза Fila Vitae

  • 0
  • Share
  • Transposing
    0
  • Font Size
Fila Vitae – Гроза
Intro:
|----------------|----------------|----------------|
|--1-----1-------|--0-----0-------|--1-----1-------|
|--2-----2-------|--0-----0-------|--2-----2-------|
|-----2-----2----|-----2-----2----|-----3-----3----|
|--0-----0-------|----------------|----------------|
|----------------|--0-----0-------|--1-----1-------|

----------------------------|
--3-----------5--3--1--0----|
--4-------------------------|
--------5-------------------|
----------------------------|
--3-------------------------|

Verse:
|--------------1-------------|
|--------2--------2-----2----|
|-----2-----2--------2-------|
|--0-------------------------|
|----------------------------|

----------------------------|----------------------------|
--------------0-------------|--------------1-------------|
--------0--------0-----0----|--------2--------2-----2----|
-----2-----2--------2-------|-----3-----3--------3-------|
----------------------------|----------------------------|
--0-------------------------|--1-------------------------|

----------------------------|
--------------0-------------|
--------0--------0-----0----|
-----0-----0--------0-------|
----------------------------|
--3-------------------------|

Am Em F
Надо мной гроза шумит
G
Накрывает пеленой
Am Em F
Черных туч суровый вид
G
Я не знаю, что со мной

Am Em F
Может просто этот дождь
G
Настроение поменял
Am Em F
Все равно ты не поймешь
G
Что в себе я потерял

Припев:
A5 E5 F5
Эту радость, этот смех
G5
Эту новую весну
A5 E5 F5
Нет желания видеть всех
G5
Нету сил быть одному
A5 E5 F5
Я иду ускорив шаг
G5
И хочу чтоб солнца луч
A5 E5 F5
Словно жизни яркий знак
G5
Показался из-за туч

Am Em F
Там где яркой вспышки свет,
G
Это молнии разряд
Am Em F
И не виден солнца след
G
Но так манит к себе взгляд

Am Em F
Словно туч не станет вмиг
G
Успокоив небеса
Am Em F
Только гром - небесный крик,
G
Поглотит в себе гроза

Припев:
A5 E5 F5
Эту радость, этот смех
G5
Эту новую весну
A5 E5 F5
Нет желания видеть всех
G5
Нету сил быть одному
A5 E5 F5
Я иду ускорив шаг
G5
И хочу чтоб солнца луч
A5 E5 F5
Словно жизни яркий знак
G5
Показался из-за туч

Log In to leave a comment

After registration we will return you to the same place
Comments
face-with-monocle
If you wait a bit, some comments may appear here...

Shhh...

Versions