Loading...
Factory 81 logo

Ssbb Factory 81

  • 0
  • Share
  • Transposing
    0
  • Font Size
Tuning: C G C F A D

Riff 1: (played throughout almost the entire song, clean effect)
D--------------------------------------------------------------------
A
F--------5----------5----------5----------5----------5----------5----
C-77---7---7-77---7---7-77---7---7-88---7---7-88---7---7-88---7---7--
G----5----------5----------5----------5----------5----------5--------
C--------------------------------------------------------------------

Riff 2:
D----------------------
A----------------------
F----------------------
C
G-1-0-1--0-1--0-1-1111-
C-1-0-1--0-1--0-1-1111-
Pm . . .

Riff 3: (solo kinda)
D-15-14-12-10------------10-9-7--------------------------------------
A--------------12-11-9-7--------12-11-9-7----------------------------
F---------------------------------------------11---11---11---1111----
C-------------------------------------------9----9----9----9---------
G--------------------------------------------------------------------
C--------------------------------------------------------------------

Riff 4:
D-----------------------------------
A-----------------------------------
F
C---------7777--555555-777777-555---
G-1-0-1-0-------333333-555555-333---
C-1-0-1-0---------------------------

Riff 5: (Is riff 1 played with distortion)

Log In to leave a comment

After registration we will return you to the same place
Comments
face-with-monocle
If you wait a bit, some comments may appear here...

Shhh...

Versions

Most Popular
You Might Like