Loading...
Evanescence logo

October Evanescence

  • 0
  • Share
  • Transposing
    0
  • Font Size
Intro / Verses:
1st guitar
E|---------------------------------|
B|---------------------------------|
G|---------------------------------|
D|----5-----3-----5-----3----------|
A|--3-----3-----3-----3-------3----|
E|3-----3-----3-----3-----3-5---5--|

|---------------------------------|
|---------------------------------|
|---------------------------------|
|----5-----3-----5-----3-----5s7--|
|--3-----3-----3-----3-----3------|
|2-----2-----2-----2-----2--------|

|-------------------------------|
|-------------------------------|
|-------------------------------|
|----3-----5-----7-----5-----3--|
|--0-----0-----0-----0-----0----|
|0-----0-----0-----0-----0------|

|-------------------------------|
|-------------------------------|
|----------0-----3-----2--------|
|----3-----------------------3--|
|1-3---1-3---1-3---3-1---3-1----|
|-------------------------------|

Near the end of each verse, 2nd guitar plays this:
|-------------------------------|
|6---3-5-------------------3----|
|----------5-7---3-5---3--------|
|-------------------------------|
|-------------------------------|
|-------------------------------|

|-------------------------------|
|6---3-5-----8-----6---5--------|
|----------5-----5--------------|
|-------------------------------|
|-------------------------------|
|-------------------------------|

|-------------------------------|
|5h6p5-3------------------(11)--| *notes in () are played
|---------------------(10)------| palm muted
|-------------------------------|
|-------------------------------|
|-------------------------------|

(10)----------------------------|
|-------------------------------|
|-------------------------------|
|-------------------------------|
|-------------------------------|
|-------------------------------|

Bridge:
1st guitar plays these notes and keeps the f note ringing
|-------------------------------|
|-------------------------------|
|-------------------------------|
|-------------------------------|
|-------------------------------|
|3-----2-----0-----0-----0------|

|-------------------------------|
|-------------------------------|
|-------------------------------|
|-------------------------------|
|1-----------0-----1---0--------|
|------5-------------------5----|

|-------------------------------|
|-------------------------------|
|-------------------------------|
|-------------------------------|
|-------------------------------|
|3-----2-----0-----0-----0------|

|--------------------------------|
|------------------1---1-1-1-1-1-|
|3-----3---3-3-----3---3-3-3-3-3-|
|3-----3---3-3-----3---3-3-3-3-3-|
|1-----1---1-1-----1---1-1-1-1-1-|
|--------------------------------|

2nd guitar plays these notes overtop:
|--------------------------------|
|6---3-5-------------------------|
|----------5-7-----5-----3---2h3-|
|--------------------------------|
|--------------------------------|
|--------------------------------|

|--------------------------------|
|------------3-----------1s3-3s5-|
|3s5---2-----------2-------------|
|--------------------------------|
|--------------------------------|
|--------------------------------|

|--------------------------------|
|6---3-5-------------------------|
|----------5-7-----5-----3---2h3-|
|--------------------------------|
|--------------------------------|
|--------------------------------|

|-------------------------------|
|------3-----------3------------|
|3s5---------3-------------3----|
|-------------------------------|
|-------------------------------|
|-------------------------------|

Chorus: both guitars play together
F C/E Dm
d ud dud ud dud ud u u ududu
|x-------0-------1---------------|
|6-------1-------3---------------|
|5-------0-------2---------------|
|3-------2-------0---------------|
|3-------3-------0---------------|
|3-------2-------0---------------|

A# C/E
d ud u u ud dud ud u u ududu
|1---------------0---------------|
|1---------------1---------------|
|3---------------0---------------|
|3---------------2---------------|
|1---------------3---------------|
|----------------2---------------|

F C/E Dm
d ud dud ud dud ud u u ududu
|x-------0-------1---------------|
|6-------1-------3---------------|
|5-------0-------2---------------|
|3-------2-------0---------------|
|3-------3-------0---------------|
|3-------2-------0---------------|

A# C/E F C/E
d ud u ud d dud ud dud ud du
|1-----------0---x-------0-------|
|1-----------1---6-------1-------|
|3-----------0---5-------0-------|
|3-----------2---3-------2-------|
|1-----------3---3-------3-------|
|------------2---3-------2-------|

Log In to leave a comment

After registration we will return you to the same place
Comments
face-with-monocle
If you wait a bit, some comments may appear here...

Shhh...

Most Popular
You Might Like