Etheridge Melissa logo

Like The Way I Do Etheridge Melissa

  • 0
  • Share
  • Font Size
    15
Etheridge Melissa – Like The Way I Do
Artist:Melissa Etheridge
Song:Like The Way I Do
Tabbed By:Gary Hricewich
Email:snapper2001@msn.com

         Verse         Pre Chorus
G------|----------------------|------------------------------|
D------|*--------------------*|---------5h7------5h7-------7|
A---3--|*-0-1--1-1--1-3--3-3-*|-1-0--0------0--0-----0--0----|
E------|----------------------|------------------------------|

      Chorus        2x                2x                2x                 2x
G---|------------------|-----------------|-----------------|------------------|
D---|*-----------------|-----------------|-----------------|-----------------*|
A---|*-5-5-5-5-5-5-5-5-|-1-1-1-1-1-1-1-1-|-3-3-3-3-3-3-3-3-|-5-5-5-5-5-5-5-5-*|
E---|------------------|-----------------|-----------------|------------------|

   Post Chorus            Pre Chorus 2
G------------5----5p3-|---------------------------------|
D----------5-----------|---------5h7-------5h7-------7p5|
A---5--5-5-----5-------|-1-0--0------0--0------0--0------|
E----------------------|---------------------------------|

      Slow Part           4x      Ect
G---|------------------------|--------------------------5h7-|
D---|*----------------------*|------------------3h5-5h7-----|
A---|*-5--5-5--3--1--1-1--3-*|-0-0-0-0-0-0-0-0--------------|
E---|------------------------|------------------------------|

Log In to leave a comment

After registration we will return you to the same place
Comments
face-with-monocle
If you wait a bit, some comments may appear here...

Shhh...