• 0
  • Share
  • Transposing
    0
  • Font Size
Erics Trip – Belly
Intro-Guitar 1 Clean( twice)

E|--------------------------------------------------------|
B|-0---0---0---0---0--------0---0---0---0---0-------------|
G|---6---6---6---6---6--64---4---4---4---4---4----4-----|
D|6-----6---6---6---6-----------4---4---4---4---4---------|
A|--------------------------------------------------------|
E|--------------------------------------------------------|

Verse-Guitar 2 (four times) Guitar ! continues

E|----0---0------0----0---------2---2------2---2-------------|
B|--2---2---2-2----2----2-0-0---0---0-0---0---0-0h2----------|
G|-----------------------------------------------------------|
D|------------------ ----------------------------------------|
A|----------------- -----------------------------------------|
E|-----------------------------------------------------------|

Chorus (both guitars-->lots o' distortion)
A5 B5 A5 B5

Verse (Guitar 2 does chords, guitar 1 does intro distorted)
C#5 B5 C#5 B5

Chorus
A5 B5 A5 B5 A5 B5 A5 B5

Verse (hold chords for two bars each)
C#5 B5 C#5 B5 C#5 B5 C#5 B5

Chorus
A5 B5 A5 B5 A5 B5 A5 B5

Solo (over verse four times)

E|------------------------ ---------------------------------|
B|---------------------9-9-7h9p75--------------------------|
G|--6---9-9p84-4-------------------------------------------|
D|----------------------------------------------------------|
A|----------------------------------------------------------|
E|----------------------------------------------------------|

Outro
Do first verse again

If anyone wants the lyrics then e-mail me at [email protected]
I'm pretty sure that they're right

Log In to leave a comment

After registration we will return you to the same place
Comments
face-with-monocle
If you wait a bit, some comments may appear here...

Shhh...

Most Popular