Eric Lapointe logo

Motel 117 Eric Lapointe

  • 0
  • Share
  • Transposing
    0
  • Font Size
Eric Lapointe – Motel 117
Intro:
----9-12-14-12------ | -------10------ | -----10-9-10-9-7-12-10--10-9- |
-10------------12--- | --10-14--14-10- | -7-10------------------------ |
------------------13 | 11------------9 | 7--------9------9------9----- |
-------------------- | --------------- | ----------------------------- |
-------------------- | --------------- | ----------------------------- |
-------------------- | --------------- | ----------------------------- |

A D/A A D/A
Une chambre de motel sul bord d'la cent dix-sept
A F#m C#m D
J'attends d'tes nouvelle les mains derrière la tête
A D/A A D/A
Je dessine au plafond les courbe de ton corps
A F#m C#m D
Dans le bruit des camions qui montent vers le nord

Bm F#m
Déjà quarante-huit heures que j'rêve d'une cigarette
D E
Des coup de poing dans l'coeur et la peur sur la gâchette

Refrain:
D A E/G# F#m
Ce s'rait trop cruel que notre histoire s'arrête
D A E
Même si c'est loin d'être celle d'Roméo et Juliette
D A E/G# F#m
Ce s'rait trop cruel que notre histoire s'arrête
Bm Dm A
D'une chambre de motel su'l bord d'la cent dix-sept

D/A | A | D/A

A D/A A D/A
Souviens toé de nos quinze ans je te l'avais juré
A F#m C#m D
Un jour j'aurai d'l'argent pour ta robe de mariée
A D/A A D/A
Tu s'ais qu'j'ai essayé mais là j'avais pus l'choix
A F#m C#m D
C'tait mendier ou volé volé j'connais ça
Bm F#m
Chu p't'être allé trop loin y mon troué la peau
D E
Mais j'recommenc'rais d'main, pour toé y'a rien trop beau
D A E/G# F#m
Ce s'rait trop cruel que notre histoire s'arrête
D A E
Même si c'est loin d'être celle d'Roméo et Juliette
D A E/G# F#m
Ce s'rait trop cruel que notre histoire s'arrête
Bm Dm F#m
D'une chambre de motel su'l bord d'la cent dix-sept

A Bm Dm F
Ce s'rait trop cruel, j'ai mal, je serre les dents
G Fmaj7/A
Faut qu'tu m'sortes de là, j'ai déjà perdu trop de sang
G/B F
Les vivants y m'auront pas tu sais ch'pas un mauvais gars
G Fmaj7/A
Malgré mon dossier mon amour écoute-les pas
G/B
J'ai pas tiré l'premier

Instrumental:
------------------------------------------5-----5-9-12-- |
------5-----5-----5-75------5-----------7-----7--------- |
-----6-7-6-7-6---6------7-6-7-6---6-7-4-7---6-7--------- |
----7-----------7----------------7---------------------- |
-4-7-----------7----------------7----------------------- |
-------------------------------------------------------- |

--------9-12--17-14-16-12-14-10------------------------- |
-----10-------------------------14-12-10---------------- |
-6-9-------------------------------------12-9----------- |
-----------------------------------------------6-------- |
-------------------------------------------------------- |
-------------------------------------------------------- |

-------12-1412----------12-----------12--14--16--17--19-17-19-- |
-----14---------15-14-15----14-----14-------------------------- |
---14----------------------------14---------------------------- |
-14----------------------------14------------------------------ |
--------------------------------------------------------------- |
--------------------------------------------------------------- |

-19----17----19-17--------------------------------------17-19-- |
------------------19-15---------------------------15-19-------- |
------------------------16-14----------------14-16------------- |
------------------------------16-12----12-16------------------- |
------------------------------------14------------------------- |
--------------------------------------------------------------- |

-19----19--17--------17---19----19----19----19---17----- |
--------------18--18--------------------------------18-- |
-------------------------------------------------------- |
-------------------------------------------------------- |
-------------------------------------------------------- |
-------------------------------------------------------- |

B F#/A# G#m G#m7
Ce s'rait trop cruel que notre histoire s'arrête
E B F#
Même si c'est loin d'être celle d'Roméo et Juliette
E B F#/A# G#m G#m7
Ce s'rait trop cruel que notre histoire s'arrête
C#m Em G#m
D'une chambre de motel su'l bord d'la cent dix-sept

G/F# C#m Em B/F#
Non ce s'rait trop cruel que notre histoire s'arrête
G#m C#m Em
Au fond tous les amants s'appellent Roméo et Juliette

Finale: B F#/A# F#m/A E/G# G A B

Log In to leave a comment

After registration we will return you to the same place
Comments
face-with-monocle
If you wait a bit, some comments may appear here...

Shhh...