Eraserheads logo

With A Smile Eraserheads

  • 0
  • Share
  • Transposing
    0
  • Font Size
Eraserheads – With A Smile
With a smile
Eraserheads

G Am
Lift your head, baby, don't be scared
Bm Am D
Of the things that could go wrong along the way
G Am
You'll get by with a smile
Bm Am D
You can't win at everything but you can try

A#
Baby, you don't have to worry
D#
'Coz there ain't no need to hurry
A# D#
No one ever said that there's an easy way
A#
When their closing all their doors
D#
And they don't want you anymore
A# D
This sounds funny but I'll say it anyway

G Am
Girl, I'll stay throught the bad times
Bm Am D
Even if I have to fetch you everyday
G Am
I'll get by if you smile
Bm Am D
You can never be too happy in this life

A#
In a world where everybody
D#
Bates a happy ending story
A# D E
It's a wonder love can make this world go 'round
A#
And don't let it bring you down
D#
And turn your face into a frown
A# D
You'll get along with a little prayer and a song

G Am Bm Am D
(To doo doo doo...)Let me hear you sing it
G Am Bm Am D
(To doo doo doo...)

A#
In a world where everybody
D#
Bates a happy ending story
A# D E
It's a wonder love can make the world go 'round
A#
But don't let it bring you down
D#
And turn your face into a frown
A# D
You'll get along with a little prayer and a song

[Riff 1 is played over this verse]
Lift your head, baby, don't be scared
Of the things that could go wrong along the way
You'll get by with a smile
But it's time to kiss those tears good bye

[A guitar solo is played with this verse]
G Am Bm Am D
(To doo doo doo...)
G Am Bm Am D
(To doo doo doo...)
G Am Bm Am D
(To doo doo doo...)
G-Am-Bm-Am-D [Riff 2 enters here]
(To doo doo doo...)...with a smile

Play Riff 2 until fade

Riff 1
G Am
E----3---2---0-------------------3---2---0----------|
B----3---3---3---3---1-0---------1---1---1---1-0----|
G------0---0---0---0-----0-----2---0---0---0-----0--|
D----------------------------2----------------------|
A--------------------------0------------------------|
E--3------------------------------------------------|

Bm Am D
E---------------5--4--0--0--------2-----0h2---------|
B--------3------3--2--1----1--------3---------------|
G------4---4----x--x--2------2--------2-------------|
D----4-------4--4--3--2---------0-------------------|
A--2------------2--1--0-----------------------------|
E---------------------------------------------------|

G Am
E----3---2---0-------------------3---2---0----------|
B----3---3---3---3---1-0---------1---1---1---1-0----|
G------0---0---0---0-----0-----2---0---0---0-----0--|
D----------------------------2----------------------|
A--------------------------0------------------------|
E--3------------------------------------------------|

Bm Am D
E---------------5--4--0--0-0-0h2-2-2-2-2------------|
B--------3------3--2--1--1-0-0h3-3-3-3-3------------|
G------4---4----x--x--2--2-0-0h2-2-2-2-2------------|
D----4-------4--4--3--2--2-0-0---0-0-0-0------------|
A--2------------2--1--0--0--------------------------|
E---------------------------------------------------|

Riff 2
G Am
E----3---2---0-------------------3---2---0----------|
B----3---3---3---3---1-0---------1---1---1---1-0----|
G------0---0---0---0-----0-----2---0---0---0-----0--|
D----------------------------2----------------------|
A--------------------------0------------------------|
E--3------------------------------------------------|

Bm Am D
E---------------5--4--0--0--------2-----0h2---------|
B--------3------3--2--1----1--------3---------------|
G------4---4----x--x--2------2--------2-------------|
D----4-------4--4--3--2---------0-------------------|
A--2------------2--1--0-----------------------------|
E---------------------------------------------------|

Log In to leave a comment

After registration we will return you to the same place
Comments
face-with-monocle
If you wait a bit, some comments may appear here...

Shhh...

Most Popular
You Might Like