Loading...
  • 0
  • Share
  • Transposing
    0
  • Font Size
1----3--------------3---------------3--------------3-------
2-------3--------------3---------------3--------------3----
3----------0--------------0---------------0--------------0-
4----------------------------------------------------------
5----------------------------------------------------------
6-3--------------3---------------0--------------0----------
Let me be your hero...

1----3--------------3---------------3--------------3-------
2-------3--------------3---------------3--------------3----
3----------0--------------0---------------0--------------0-
4----------------------------------------------------------
5-3--------------3---------------0--------------0----------
6----------------------------------------------------------

1----3--------------3---------------3--------------3-------
2-------3--------------3---------------3--------------3----
3----------0--------------0---------------0--------------0-
4----------------------------------------------------------
5----------------------------------------------------------
6-3--------------3---------------0--------------0----------
would you dance If I asked you dance...

1----3--------------3---------------3--------------3-------
2-------3--------------3---------------3--------------3----
3----------0--------------0---------------0--------------0-
4----------------------------------------------------------
5-3--------------3---------------0--------------0----------
6----------------------------------------------------------
would you run and never look back

1----3--------------3---------------3--------------3-------
2-------3--------------3---------------3--------------3----
3----------0--------------0---------------0--------------0-
4----------------------------------------------------------
5----------------------------------------------------------
6-3--------------3---------------0--------------0----------
would you cry and if you saw me crying

1----3--------------3---------------3--------------3-------
2-------3--------------3---------------3--------------3----
3----------0--------------0---------------0--------------0-
4----------------------------------------------------------
5-3--------------3---------------0--------------0----------
6----------------------------------------------------------
would you save my soul tonight

1----3--------------3---------------3--------------3-------
2-------3--------------3---------------3--------------3----
3----------0--------------0---------------0--------------0-
4----------------------------------------------------------
5----------------------------------------------------------
6-3--------------3---------------0--------------0----------
would you tremble if i touched your lips...

1----3--------------3---------------3--------------3-------
2-------3--------------3---------------3--------------3----
3----------0--------------0---------------0--------------0-
4----------------------------------------------------------
5-3--------------3---------------0--------------0----------
6----------------------------------------------------------
would you laught oh please tell me this

1----3--------------3---------------3--------------3-------
2-------3--------------3---------------3--------------3----
3----------0--------------0---------------0--------------0-
4----------------------------------------------------------
5----------------------------------------------------------
6-3--------------3---------------0--------------0----------
now would you die for the one you love

1----3--------------3---------------3--------------3-------
2-------3--------------3---------------3--------------3----
3----------0--------------0---------------0--------------0-
4----------------------------------------------------------
5-3--------------3---------------0--------------0----------
6----------------------------------------------------------
hold me in your arms tonight

G D C
I can be your Hero Baby
G D C
I can kiss away the pain
G D C
I will stand by you forever
G D C
You can take...my breath away

G Em
Would you swear that you'll always be mine?
C D
Or would you lie would you run and hide
G Em
Am I in too deep, Have I lost my mind,
C D G
I don't care You're here tonight.

G D C
I can be your Hero Baby
G D C
I can kiss away the pain
G D C
I will stand by you forever
G D C
You can take my breath away

Solo:
E|-------------------------------------------------------------------------------------------------------
B|----------------------------------------------------7---------7-----------7-8-7------------------------
G|---------------------------------------------5/7-7-7-7---5/7-7-7---7r9p7--------7--------------------7-
D|-5-5-5-7-7/9-9--9-9-9-7-5-5---5-7-5---5r7p5---------------------------------------7h9p7-7--7h9p7----9--
A|-------------------------------------------------------------------------------------------------10----
E|-------------------------------------------------------------------------------------------------------

G Em
Oh, I just want to hold you
C D
I just want to hold you oh yea
G Em
Фm I in too deep, Have I lost my mind,
C D G
I don't care You're here tonight.

G D C
I can be your Hero Baby
G D C
I can kiss away the pain
G D C
I will stand by you forever
G D C
You can take... my breath away

G D C
I can be your Hero
G D C
I can kiss away the pain
G D C
I will stand by you forever
G D C
You can take...my breath away
G D C
You can take...my breath away
G D C
I can be your hero

Log In to leave a comment

After registration we will return you to the same place
Comments
face-with-monocle
If you wait a bit, some comments may appear here...

Shhh...