Eminem logo

Till I Collapse Eminem

  • 1
  • Share
  • Font Size
Eminem – Till I Collapse
Intro/Verse/Chrous:
|----------------------------------------------------------------|
|----------------------------------------------------------------|
|---1-1-1-1---1-2-1----1-1-1-1---1------1-1-1-1---1-2-1---1-1-1--|
|-----------4------------------4---2------------4----------------|
|-4------------------4----------------4-----------------4--------|
|----------------------------------------------------------------|

|----------------------------------------------------------------|
|----------------------------------------------------------------|
|-1---1----------------------------------------------------------|
|---4---2-1------------------------------------------------------|
|-----------2-2\\4------------------------------------------------|
|----------------------------------------------------------------|

|----------------------------------------------------------------|
|----------------------------------------------------------------|
|---1-1-1-1---1-2-1----1-1-1-1---1------1-1-1-1---1-2-1---1-1-1--|
|-----------4------------------4---2------------4----------------|
|-4------------------4----------------4-----------------4--------|
|----------------------------------------------------------------|

|----------------------------------------------------------------|
|----------------------------------------------------------------|
|-1---1----------------------------------------------------------|
|---4---2-1------------------------------------------------------|
|-----------2-2\\4------------------------------------------------|
|----------------------------------------------------------------|

|----------------------------------------------------------------|
|----------------------------------------------------------------|
|---1-1-1-1---1-2-1----1-1-1-1---1------1-1-1-1---1-2-1---1-1-1--|
|-----------4------------------4---2------------4----------------|
|-4------------------4----------------4-----------------4--------|
|----------------------------------------------------------------|

|----------------------------------------------------------------|
|----------------------------------------------------------------|
|-1---1----------------------------------------------------------|
|---4---2-1------------------------------------------------------|
|-----------2-2\\4------------------------------------------------|
|----------------------------------------------------------------|

Log In to leave a comment

After registration we will return you to the same place
Comments
face-with-monocle
If you wait a bit, some comments may appear here...

Shhh...

Versions

Most Popular
You Might Like