Electric Light Orchestra logo

Shine A Little Love Electric Light Orchestra

  • 0
  • Share
  • Transposing
    0
  • Font Size
Electric Light Orchestra – Shine A Little Love
Intro q q q q q q q q q q q q q q
G----------------------------|--------------|--------------|------------
D---4:-----------------------|--------------|--------------|------------
A---4:-----------------------|--------------|--------------|------------
E----------------3--3--3--3--|--3--3--3--3--|--3--3--3--3--|--3--3------

Q q q q q e e verse q q e e e e e e
G---------|-----------------||-----------------------------|------------
D---------|-----------------||-----------------------------|------------
A---------|-----------------||-----------7--7-----5--------|-----7------
E---3--3--|--3--3--3--3--7--||-----------------7-----7--5--|--5---------

E e e e e e bridge e e e e e e e e e e
G---------------------||-----------------------------------|------------
D---------------------||-----------------------------------|------------
A---------------0--2--||-----------3--3--3--3--3--3--3--3--|--4--4------
E---5--7--0--3--------||-----------------------------------|------------

E e e e e e e e e e e e e e e e e e e e
G---------------------|--------------------------|----------------------
D---------------------|--------------------------|----------------------
A---4--4--4--4--4--4--|--5--5--5--5--5--5--5--5--|--5--5--5--5--5--5----
E---------------------|--------------------------|----------------------

E e chorus q q q q q q q q intro part 2
G---------||-----------------------|--------------||--------------------
D---------||-----------------------|--------------||--------------------
A---4--3--||-----------2--2--2--2--|--0--2--3--5--||--------------------
E---------||-----------------------|--------------||--------------------

Q q q q q q q q q q q q q q q e e
G------------------|--------------|--------------|----------------------
D------------------|--------------|--------------|----------------------
A------------------|--------------|--------------|----------------------
E------3--3--3--3--|--3--3--3--3--|--3--3--3--3--|--3--3--3--3--7-------

Interlude q q e e e e q q e e e e q q
G---||--------------------------------|--------------------|------------
D---||--------------------------------|--------------------|------------
A---||--------------7--7--7-----7-----|--6--6--6-----6-----|--5--5------
E---||-----------------------7-----7--|-----------7-----7--|------------

E e e e q q e e e e q q e e e e q q e
G---------------|--------------------|--------------------|-------------
D---------------|--------------------|--------------------|-------------
A---5-----5-----|--4--4--4-----4-----|--3--3--3-----3-----|--2--2--2----
E------7-----7--|-----------5-----5--|-----------5-----5--|-------------

E e e q q e e e e e e e e e e e e e e
G------------|--------------------|--------------------------|----------
D------------|--------------------|--------------------------|----------
A------2-----|--1--1--1-----1-----|--0--0--0--0--0--0--0--0--|--5--5----
E---3-----3--|-----------3-----3--|--------------------------|----------

E e e e e e intro 3 q q q q q q q e e
G---------------------||--------------------------|---------------------
D---------------------||--------------------------|---------------------
A---5--5--5--5--5--5--||--------------------------|---------------------
E---------------------||--------------3--3--3--3--|--3--3--3--3--7------

Order:
Intro
Verse 3x
Bridge 1x
Chorus 3x
Intro 2 1x
Verse 3x
Bridge 1x
Chorus 3x
Intro 2 1x
Interlude 1x
Intro 2 1x
Verse 3x
Bridge 1x
Chorus 3x
Intro 2 1x
Interlude 1x
Intro 2 1x
Verse 3x
Bridge 1x
Chorus 3x
Intro 3 1x
Chorus 3x
Intro 3 1x
Chorus 3x
Intro (fade)

Log In to leave a comment

After registration we will return you to the same place
Comments
face-with-monocle
If you wait a bit, some comments may appear here...

Shhh...

Most Popular
You Might Like