Dropkick Murphys logo

Rocky Road To Dublin Dropkick Murphys

  • 0
  • Share
  • Font Size
Dropkick Murphys – Rocky Road To Dublin
Submitted By: Mike Beer  [email protected]
*Listen To Track To Get Srumming Patterns

Intro:

G|--------------|--------------|------------------------|
D|--2--0--------|--2--0--------|--2222222222222222222---|
A|--------2--0--|--------2--0--|------------------------|
E|--------------|--------------|------------------------|

Verse 1:

G|--------------------|------------4-----|-----------|
D|--0h2--0h2--0h2--0--|--0h2--0h2-----0--|--2--0--2--|
A|--------------------|------------------|-----------|
E|--------------------|------------------|-----------|

G|-----------|--------------|-----------|--4---------|
D|--2--0--2--|--2--0--2--0--|--2--0--2--|-----0--2---|
A|-----------|--------------|-----------|------------|
E|-----------|--------------|-----------|------------|

G|-----------------|-----|
D|--2--0--2--0--2--|--2--|
A|-----------------|-----|
E|-----------------|-----|

Verse 2:

G|--------------------|------------4-----|-----------|
D|--0h2--0h2--0h2--0--|--0h2--0h2-----0--|--2--0--2--|
A|--------------------|------------------|-----------|
E|--------------------|------------------|-----------|

G|-----------|--------------|-----------|--4---------|
D|--2--0--2--|--2--0--2--0--|--2--0--2--|-----0--2---|
A|-----------|--------------|-----------|------------|
E|-----------|--------------|-----------|------------|

G|-----------------|
D|--2--0--2--0--2--|
A|-----------------|
E|-----------------|

Chours:

G|-----------------|
D|--2--0--------2--|
A|--------2--0-----|
E|-----------------|

Verse 3:

G|--------------------|------------4-----|----------------|
D|--0h2--0h2--0h2--0--|--0h2--0h2-----0--|--2--0h2--2--0--|
A|--------------------|------------------|----------------|
E|--------------------|------------------|----------------|

G|-------------------|
D|--2--0h2--2--0--2--|
A|-------------------|
E|-------------------|

Chours:

G|-----------------|
D|--2--0--------2--|
A|--------2--0-----|
E|-----------------|

Guitar Break

Lead-in to 3rd Chours:

G|-----|
D|--2--|
A|-----|
E|-----|

Chours:

G|-----------------|
D|--2--0--------2--|
A|--------2--0-----|
E|-----------------|

Verse 4:

G|--------------------|------------4-----|----------------|
D|--0h2--0h2--0h2--0--|--0h2--0h2-----0--|--2--0h2--2--0--|
A|--------------------|------------------|----------------|
E|--------------------|------------------|----------------|

G|-------------------|
D|--2--0h2--2--0--2--|
A|-------------------|
E|-------------------|

Outro:

G|-----------------|-----|-------------------|
D|--2--0--------2--|--2--|--2--0----------2--|
A|--------2--0-----|-----|--------22--00-----|
E|-----------------|-----|-------------------|

Log In to leave a comment

After registration we will return you to the same place
Comments
face-with-monocle
If you wait a bit, some comments may appear here...

Shhh...