Dr Dre logo

Aint Nothin But A G Thang Dr Dre

  • 23
  • Share
  • Transposing
    0
  • Font Size
    15
Dr Dre – Aint Nothin But A G Thang
Band: Dr. Dre
Song: Ain't Nothing but a G Thang
Album: The Chronic

Gnuti seauton
Tab by RAMOHSE

/ a slide
~ tremolo
B hammer on
P pull off
' bend

Bass part (played throughout)

G ---------------------------------------------------|
D --------------2-3-4----2-3-4-----------------------|
A -2-0-1-2----4--------4--------2-0-1-2--------------|
E ---------------------------------------------------|

Intro guitar part (with a bit of flange)

E -7~-------5~----------5~---2~----------------------|
B -7~-------5~----------5~---2~----------------------|
G ---------------------------------------------------|
D ---------------------------------------------------|
A ---------------------------------------------------|
E ---------------------------------------------------|

Main Squealy Guitar Part

E --19/17/19/21/19/17~---15-14~-12-14~~--------------|
B ---------------------------------------------------|
G ---------------------------------------------------|
D ---------------------------------------------------|
A ---------------------------------------------------|
E ---------------------------------------------------|

Those are the main parts, listen to it to get where they go

Log In to leave a comment

After registration we will return you to the same place
Comments
face-with-monocle
If you wait a bit, some comments may appear here...

Shhh...