Downset logo

Holding Hands Downset

  • 0
  • Share
  • Font Size
    15
Downset – Holding Hands
Downset
Holding Hands
Bass
I'm not sure if this is tuned down, if so adjust accordingly.
This is an awesome intro.  Use a PICK, PLECTRUM, OR OTHER DEVICE!

G|---------------------------------------------------|
D|--12--12--12-11^12^11----14--------14-------14-----|
A|---0------------------12-----12-12----12-12----12--|
E|---------------------------------------------------|

Continued..
G|---------------12-----------------------------|
D|---14--12----12---12--10----10-----10---10----|
A|----0---0--0-----------0--0----0-0----0----0--|
E|----------------------------------------------|

You want anything, just shout at roastbeefalo@home.com or redweasel56@usa.net

Log In to leave a comment

After registration we will return you to the same place
Comments
face-with-monocle
If you wait a bit, some comments may appear here...

Shhh...